  0
SECTION
  2
HEADER
  9
$ACADVER
  1
AC1015
  9
$ACADMAINTVER
 70
     6
  9
$DWGCODEPAGE
  3
ANSI_1252
  9
$INSBASE
 10
0.0
 20
0.0
 30
0.0
  9
$EXTMIN
 10
0.0
 20
0.0
 30
0.0
  9
$EXTMAX
 10
11.0
 20
8.5
 30
0.0
  9
$LIMMIN
 10
0.0
 20
0.0
  9
$LIMMAX
 10
11.0
 20
8.5
  9
$ORTHOMODE
 70
     0
  9
$REGENMODE
 70
     1
  9
$FILLMODE
 70
     1
  9
$QTEXTMODE
 70
     0
  9
$MIRRTEXT
 70
     1
  9
$LTSCALE
 40
1.0
  9
$ATTMODE
 70
     1
  9
$TEXTSIZE
 40
0.1666666667
  9
$TRACEWID
 40
0.05
  9
$TEXTSTYLE
  7
Standard
  9
$CLAYER
  8
0
  9
$CELTYPE
  6
ByLayer
  9
$CECOLOR
 62
   256
  9
$CELTSCALE
 40
1.0
  9
$DISPSILH
 70
     0
  9
$DIMSCALE
 40
1.0
  9
$DIMASZ
 40
0.09
  9
$DIMEXO
 40
0.05
  9
$DIMDLI
 40
0.38
  9
$DIMRND
 40
0.0
  9
$DIMDLE
 40
0.0
  9
$DIMEXE
 40
0.0625
  9
$DIMTP
 40
0.0
  9
$DIMTM
 40
0.0
  9
$DIMTXT
 40
0.1666666667
  9
$DIMCEN
 40
0.09
  9
$DIMTSZ
 40
0.0
  9
$DIMTOL
 70
     0
  9
$DIMLIM
 70
     0
  9
$DIMTIH
 70
     1
  9
$DIMTOH
 70
     1
  9
$DIMSE1
 70
     0
  9
$DIMSE2
 70
     0
  9
$DIMTAD
 70
     0
  9
$DIMZIN
 70
     0
  9
$DIMBLK
  1

  9
$DIMASO
 70
     1
  9
$DIMSHO
 70
     1
  9
$DIMPOST
  1

  9
$DIMAPOST
  1

  9
$DIMALT
 70
     0
  9
$DIMALTD
 70
     2
  9
$DIMALTF
 40
25.4
  9
$DIMLFAC
 40
1.0
  9
$DIMTOFL
 70
     0
  9
$DIMTVP
 40
0.0
  9
$DIMTIX
 70
     0
  9
$DIMSOXD
 70
     0
  9
$DIMSAH
 70
     0
  9
$DIMBLK1
  1

  9
$DIMBLK2
  1

  9
$DIMSTYLE
  2
Standard
  9
$DIMCLRD
 70
     0
  9
$DIMCLRE
 70
     0
  9
$DIMCLRT
 70
     0
  9
$DIMTFAC
 40
1.0
  9
$DIMGAP
 40
0.06
  9
$DIMJUST
 70
     0
  9
$DIMSD1
 70
     0
  9
$DIMSD2
 70
     0
  9
$DIMTOLJ
 70
     1
  9
$DIMTZIN
 70
     0
  9
$DIMALTZ
 70
     0
  9
$DIMALTTZ
 70
     0
  9
$DIMUPT
 70
     0
  9
$DIMDEC
 70
     2
  9
$DIMTDEC
 70
     2
  9
$DIMALTU
 70
     2
  9
$DIMALTTD
 70
     2
  9
$DIMTXSTY
  7
Standard
  9
$DIMAUNIT
 70
     0
  9
$DIMADEC
 70
     0
  9
$DIMALTRND
 40
0.0
  9
$DIMAZIN
 70
     0
  9
$DIMDSEP
 70
    46
  9
$DIMATFIT
 70
     3
  9
$DIMFRAC
 70
     0
  9
$DIMLDRBLK
  1

  9
$DIMLUNIT
 70
     2
  9
$DIMLWD
 70
    -2
  9
$DIMLWE
 70
    -2
  9
$DIMTMOVE
 70
     0
  9
$LUNITS
 70
     2
  9
$LUPREC
 70
     2
  9
$SKETCHINC
 40
0.1
  9
$FILLETRAD
 40
0.5
  9
$AUNITS
 70
     0
  9
$AUPREC
 70
     0
  9
$MENU
  1
.
  9
$ELEVATION
 40
0.0
  9
$PELEVATION
 40
0.0
  9
$THICKNESS
 40
0.0
  9
$LIMCHECK
 70
     0
  9
$CHAMFERA
 40
0.0
  9
$CHAMFERB
 40
0.0
  9
$CHAMFERC
 40
0.0
  9
$CHAMFERD
 40
0.0
  9
$SKPOLY
 70
     0
  9
$TDCREATE
 40
2456890.62118838
  9
$TDUCREATE
 40
2456890.829521713
  9
$TDUPDATE
 40
2456890.621189363
  9
$TDUUPDATE
 40
2456890.829522697
  9
$TDINDWG
 40
0.0000000116
  9
$TDUSRTIMER
 40
0.0000000116
  9
$USRTIMER
 70
     1
  9
$ANGBASE
 50
0.0
  9
$ANGDIR
 70
     0
  9
$PDMODE
 70
     0
  9
$PDSIZE
 40
-1.0
  9
$PLINEWID
 40
0.0
  9
$SPLFRAME
 70
     0
  9
$SPLINETYPE
 70
     6
  9
$SPLINESEGS
 70
     8
  9
$HANDSEED
  5
5C2
  9
$SURFTAB1
 70
     6
  9
$SURFTAB2
 70
     6
  9
$SURFTYPE
 70
     6
  9
$SURFU
 70
     6
  9
$SURFV
 70
     6
  9
$UCSBASE
  2

  9
$UCSNAME
  2

  9
$UCSORG
 10
0.0
 20
0.0
 30
0.0
  9
$UCSXDIR
 10
1.0
 20
0.0
 30
0.0
  9
$UCSYDIR
 10
0.0
 20
1.0
 30
0.0
  9
$UCSORTHOREF
  2

  9
$UCSORTHOVIEW
 70
     0
  9
$UCSORGTOP
 10
0.0
 20
0.0
 30
0.0
  9
$UCSORGBOTTOM
 10
0.0
 20
0.0
 30
0.0
  9
$UCSORGLEFT
 10
0.0
 20
0.0
 30
0.0
  9
$UCSORGRIGHT
 10
0.0
 20
0.0
 30
0.0
  9
$UCSORGFRONT
 10
0.0
 20
0.0
 30
0.0
  9
$UCSORGBACK
 10
0.0
 20
0.0
 30
0.0
  9
$PUCSBASE
  2

  9
$PUCSNAME
  2

  9
$PUCSORG
 10
0.0
 20
0.0
 30
0.0
  9
$PUCSXDIR
 10
1.0
 20
0.0
 30
0.0
  9
$PUCSYDIR
 10
0.0
 20
1.0
 30
0.0
  9
$PUCSORTHOREF
  2

  9
$PUCSORTHOVIEW
 70
     0
  9
$PUCSORGTOP
 10
0.0
 20
0.0
 30
0.0
  9
$PUCSORGBOTTOM
 10
0.0
 20
0.0
 30
0.0
  9
$PUCSORGLEFT
 10
0.0
 20
0.0
 30
0.0
  9
$PUCSORGRIGHT
 10
0.0
 20
0.0
 30
0.0
  9
$PUCSORGFRONT
 10
0.0
 20
0.0
 30
0.0
  9
$PUCSORGBACK
 10
0.0
 20
0.0
 30
0.0
  9
$USERI1
 70
     0
  9
$USERI2
 70
     0
  9
$USERI3
 70
     0
  9
$USERI4
 70
     0
  9
$USERI5
 70
     0
  9
$USERR1
 40
0.0
  9
$USERR2
 40
0.0
  9
$USERR3
 40
0.0
  9
$USERR4
 40
0.0
  9
$USERR5
 40
0.0
  9
$WORLDVIEW
 70
     1
  9
$SHADEDGE
 70
     3
  9
$SHADEDIF
 70
    70
  9
$TILEMODE
 70
     1
  9
$MAXACTVP
 70
    64
  9
$PINSBASE
 10
0.0
 20
0.0
 30
0.0
  9
$PLIMCHECK
 70
     0
  9
$PEXTMIN
 10
1.0000000000E+20
 20
1.0000000000E+20
 30
1.0000000000E+20
  9
$PEXTMAX
 10
-1.0000000000E+20
 20
-1.0000000000E+20
 30
-1.0000000000E+20
  9
$PLIMMIN
 10
0.0
 20
0.0
  9
$PLIMMAX
 10
12.0
 20
9.0
  9
$UNITMODE
 70
     0
  9
$VISRETAIN
 70
     1
  9
$PLINEGEN
 70
     0
  9
$PSLTSCALE
 70
     1
  9
$TREEDEPTH
 70
  3020
  9
$CMLSTYLE
  2
Standard
  9
$CMLJUST
 70
     0
  9
$CMLSCALE
 40
1.0
  9
$PROXYGRAPHICS
 70
     1
  9
$MEASUREMENT
 70
     0
  9
$CELWEIGHT
370
    -1
  9
$ENDCAPS
280
     0
  9
$JOINSTYLE
280
     0
  9
$LWDISPLAY
290
     1
  9
$INSUNITS
 70
     1
  9
$HYPERLINKBASE
  1

  9
$STYLESHEET
  1

  9
$XEDIT
290
     1
  9
$CEPSNTYPE
380
     0
  9
$PSTYLEMODE
290
     1
  9
$FINGERPRINTGUID
  2
{91CE0088-30FD-4489-994C-CBF146CE498D}
  9
$VERSIONGUID
  2
{FAEB1C32-E019-11D5-929B-00C0DF256EC4}
  9
$EXTNAMES
290
     1
  9
$PSVPSCALE
 40
0.0
  9
$OLESTARTUP
290
     0
  0
ENDSEC
  0
SECTION
  2
CLASSES
  0
CLASS
  1
ACDBDICTIONARYWDFLT
  2
AcDbDictionaryWithDefault
  3
ObjectDBX Classes
 90
        0
280
     0
281
     0
  0
CLASS
  1
VISUALSTYLE
  2
AcDbVisualStyle
  3
ObjectDBX Classes
 90
     4095
280
     0
281
     0
  0
CLASS
  1
MATERIAL
  2
AcDbMaterial
  3
ObjectDBX Classes
 90
     1153
280
     0
281
     0
  0
CLASS
  1
SCALE
  2
AcDbScale
  3
ObjectDBX Classes
 90
     1153
280
     0
281
     0
  0
CLASS
  1
SUN
  2
AcDbSun
  3
SCENEOE
 90
     1153
280
     0
281
     0
  0
CLASS
  1
ACDBPLACEHOLDER
  2
AcDbPlaceHolder
  3
ObjectDBX Classes
 90
        0
280
     0
281
     0
  0
CLASS
  1
LAYOUT
  2
AcDbLayout
  3
ObjectDBX Classes
 90
        0
280
     0
281
     0
  0
ENDSEC
  0
SECTION
  2
TABLES
  0
TABLE
  2
VPORT
  5
8
330
0
100
AcDbSymbolTable
 70
     1
  0
VPORT
  5
29
330
8
100
AcDbSymbolTableRecord
100
AcDbViewportTableRecord
  2
*Active
 70
     0
 10
0.0
 20
0.0
 11
1.0
 21
1.0
 12
5.5
 22
4.25
 13
0.0
 23
0.0
 14
0.5
 24
0.5
 15
0.5
 25
0.5
 16
0.0
 26
0.0
 36
1.0
 17
0.0
 27
0.0
 37
0.0
 40
8.5
 41
1.2941176471
 42
50.0
 43
0.0
 44
0.0
 50
0.0
 51
0.0
 71
     0
 72
  2000
 73
     1
 74
     3
 75
     0
 76
     0
 77
     0
 78
     0
281
     0
 65
     1
110
0.0
120
0.0
130
0.0
111
1.0
121
0.0
131
0.0
112
0.0
122
1.0
132
0.0
 79
     0
146
0.0
  0
ENDTAB
  0
TABLE
  2
LTYPE
  5
5
330
0
100
AcDbSymbolTable
 70
     6
  0
LTYPE
  5
14
330
5
100
AcDbSymbolTableRecord
100
AcDbLinetypeTableRecord
  2
ByBlock
 70
     0
  3

 72
    65
 73
     0
 40
0.0
  0
LTYPE
  5
15
330
5
100
AcDbSymbolTableRecord
100
AcDbLinetypeTableRecord
  2
ByLayer
 70
     0
  3

 72
    65
 73
     0
 40
0.0
  0
LTYPE
  5
16
330
5
100
AcDbSymbolTableRecord
100
AcDbLinetypeTableRecord
  2
Continuous
 70
     0
  3
Solid line
 72
    65
 73
     0
 40
0.0
  0
LTYPE
  5
6A
330
5
100
AcDbSymbolTableRecord
100
AcDbLinetypeTableRecord
  2
HIDDEN
 70
     0
  3
Hidden __ __ __ __ __ __ __ __ __ __ __ __ __ __
 72
    65
 73
     2
 40
0.075
 49
0.05
 74
     0
 49
-0.025
 74
     0
  0
LTYPE
  5
6B
330
5
100
AcDbSymbolTableRecord
100
AcDbLinetypeTableRecord
  2
PHANTOM
 70
     0
  3
Phantom ______  __  __  ______  __  __  ______
 72
    65
 73
     6
 40
0.5
 49
0.25
 74
     0
 49
-0.05
 74
     0
 49
0.05
 74
     0
 49
-0.05
 74
     0
 49
0.05
 74
     0
 49
-0.05
 74
     0
  0
LTYPE
  5
6C
330
5
100
AcDbSymbolTableRecord
100
AcDbLinetypeTableRecord
  2
CENTER
 70
     0
  3
Center ____ _ ____ _ ____ _ ____ _ ____ _ ____
 72
    65
 73
     4
 40
0.4
 49
0.25
 74
     0
 49
-0.05
 74
     0
 49
0.05
 74
     0
 49
-0.05
 74
     0
  0
LTYPE
  5
6D
330
5
100
AcDbSymbolTableRecord
100
AcDbLinetypeTableRecord
  2
CENTERX2
 70
     0
  3
Center (2x) ________  __  ________  __  _____
 72
    65
 73
     4
 40
0.8
 49
0.5
 74
     0
 49
-0.1
 74
     0
 49
0.1
 74
     0
 49
-0.1
 74
     0
  0
LTYPE
  5
6E
330
5
100
AcDbSymbolTableRecord
100
AcDbLinetypeTableRecord
  2
DOT2
 70
     0
  3
Dot (.5x) ........................................
 72
    65
 73
     2
 40
0.025
 49
0.0
 74
     0
 49
-0.025
 74
     0
  0
ENDTAB
  0
TABLE
  2
LAYER
  5
2
330
0
100
AcDbSymbolTable
 70
     2
  0
LAYER
  5
10
330
2
100
AcDbSymbolTableRecord
100
AcDbLayerTableRecord
  2
0
 70
     0
 62
     7
  6
Continuous
370
    -3
390
F
  0
LAYER
  5
6F
330
2
100
AcDbSymbolTableRecord
100
AcDbLayerTableRecord
  2
FORMAT
 70
     0
 62
     7
  6
Continuous
370
    -3
390
F
  0
ENDTAB
  0
TABLE
  2
STYLE
  5
3
330
0
100
AcDbSymbolTable
 70
     2
  0
STYLE
  5
11
330
3
100
AcDbSymbolTableRecord
100
AcDbTextStyleTableRecord
  2
Standard
 70
     0
 40
0.0
 41
1.0
 50
0.0
 71
     0
 42
0.1666666667
  3
txt
  4

  0
STYLE
  5
5C0
330
3
100
AcDbSymbolTableRecord
100
AcDbTextStyleTableRecord
  2
SLDTEXTSTYLE0
 70
     0
 40
0.0
 41
0.605
 50
0.0
 71
     0
 42
0.1666666667
  3
TXT
  4

  0
ENDTAB
  0
TABLE
  2
VIEW
  5
6
330
0
100
AcDbSymbolTable
 70
     0
  0
ENDTAB
  0
TABLE
  2
UCS
  5
7
330
0
100
AcDbSymbolTable
 70
     0
  0
ENDTAB
  0
TABLE
  2
APPID
  5
9
330
0
100
AcDbSymbolTable
 70
     1
  0
APPID
  5
12
330
9
100
AcDbSymbolTableRecord
100
AcDbRegAppTableRecord
  2
ACAD
 70
     0
  0
ENDTAB
  0
TABLE
  2
DIMSTYLE
  5
A
330
0
100
AcDbSymbolTable
 70
     1
100
AcDbDimStyleTable
  0
DIMSTYLE
105
27
330
A
100
AcDbSymbolTableRecord
100
AcDbDimStyleTableRecord
  2
Standard
 70
     0
178
     0
340
11
  0
ENDTAB
  0
TABLE
  2
BLOCK_RECORD
  5
1
330
0
100
AcDbSymbolTable
 70
     1
  0
BLOCK_RECORD
  5
1F
330
1
100
AcDbSymbolTableRecord
100
AcDbBlockTableRecord
  2
*Model_Space
340
22
  0
BLOCK_RECORD
  5
1B
330
1
100
AcDbSymbolTableRecord
100
AcDbBlockTableRecord
  2
*Paper_Space
340
1E
  0
BLOCK_RECORD
  5
23
330
1
100
AcDbSymbolTableRecord
100
AcDbBlockTableRecord
  2
*Paper_Space0
340
26
  0
ENDTAB
  0
ENDSEC
  0
SECTION
  2
BLOCKS
  0
BLOCK
  5
20
330
1F
100
AcDbEntity
  8
0
100
AcDbBlockBegin
  2
*Model_Space
 70
     0
 10
0.0
 20
0.0
 30
0.0
  3
*Model_Space
  1
*Model_Space
  0
ENDBLK
  5
21
330
1F
100
AcDbEntity
  8
0
100
AcDbBlockEnd
  0
BLOCK
  5
1C
330
1B
100
AcDbEntity
 67
     1
  8
0
100
AcDbBlockBegin
  2
*Paper_Space
 70
     0
 10
0.0
 20
0.0
 30
0.0
  3
*Paper_Space
  1
*Paper_Space
  0
ENDBLK
  5
1D
330
1B
100
AcDbEntity
 67
     1
  8
0
100
AcDbBlockEnd
  0
BLOCK
  5
24
330
23
100
AcDbEntity
  8
0
100
AcDbBlockBegin
  2
*Paper_Space0
 70
     0
 10
0.0
 20
0.0
 30
0.0
  3
*Paper_Space0
  1
*Paper_Space0
  0
ENDBLK
  5
25
330
23
100
AcDbEntity
  8
0
100
AcDbBlockEnd
  0
ENDSEC
  0
SECTION
  2
ENTITIES
  0
LINE
  5
70
330
1F
100
AcDbEntity
  8
0
  6
Continuous
 62
     7
370
    30
100
AcDbLine
 10
2.9661383639
 20
6.7775763836
 30
0.0
 11
2.9906381608
 21
6.7634311337
 31
0.0
  0
LINE
  5
71
330
1F
100
AcDbEntity
  8
0
  6
Continuous
 62
     7
370
    30
100
AcDbLine
 10
3.1316383453
 20
6.7634311337
 30
0.0
 11
3.1561381423
 21
6.7775763836
 31
0.0
  0
LINE
  5
72
330
1F
100
AcDbEntity
  8
0
  6
Continuous
 62
     7
370
    30
100
AcDbLine
 10
3.1561381423
 20
6.7775763836
 30
0.0
 11
3.1316383453
 21
6.7917213402
 31
0.0
  0
LINE
  5
73
330
1F
100
AcDbEntity
  8
0
  6
Continuous
 62
     7
370
    30
100
AcDbLine
 10
2.9906381608
 20
6.7917213402
 30
0.0
 11
2.9661383639
 21
6.7775763836
 31
0.0
  0
LINE
  5
74
330
1F
100
AcDbEntity
  8
0
  6
Continuous
 62
     7
370
    30
100
AcDbLine
 10
3.1561381423
 20
6.7220208654
 30
0.0
 11
3.1316383453
 21
6.736165822
 31
0.0
  0
LINE
  5
75
330
1F
100
AcDbEntity
  8
0
  6
Continuous
 62
     7
370
    30
100
AcDbLine
 10
2.9906381608
 20
6.736165822
 30
0.0
 11
2.9661383639
 21
6.7220208654
 31
0.0
  0
LINE
  5
76
330
1F
100
AcDbEntity
  8
0
  6
Continuous
 62
     7
370
    30
100
AcDbLine
 10
2.9661383639
 20
6.7220208654
 30
0.0
 11
2.9906381608
 21
6.7078756154
 31
0.0
  0
LINE
  5
77
330
1F
100
AcDbEntity
  8
0
  6
Continuous
 62
     7
370
    30
100
AcDbLine
 10
3.1316383453
 20
6.7078756154
 30
0.0
 11
3.1561381423
 21
6.7220208654
 31
0.0
  0
LINE
  5
78
330
1F
100
AcDbEntity
  8
0
  6
Continuous
 62
     7
370
    30
100
AcDbLine
 10
3.1561381423
 20
6.6109095356
 30
0.0
 11
3.1316383453
 21
6.6250547855
 31
0.0
  0
LINE
  5
79
330
1F
100
AcDbEntity
  8
0
  6
Continuous
 62
     7
370
    30
100
AcDbLine
 10
2.9906381608
 20
6.6250547855
 30
0.0
 11
2.9661383639
 21
6.6109095356
 31
0.0
  0
LINE
  5
7A
330
1F
100
AcDbEntity
  8
0
  6
Continuous
 62
     7
370
    30
100
AcDbLine
 10
2.9661383639
 20
6.6664650538
 30
0.0
 11
2.9906381608
 21
6.6523200972
 31
0.0
  0
LINE
  5
7B
330
1F
100
AcDbEntity
  8
0
  6
Continuous
 62
     7
370
    30
100
AcDbLine
 10
3.1316383453
 20
6.6523200972
 30
0.0
 11
3.1561381423
 21
6.6664650538
 31
0.0
  0
LINE
  5
7C
330
1F
100
AcDbEntity
  8
0
  6
Continuous
 62
     7
370
    30
100
AcDbLine
 10
2.9661383639
 20
6.6109095356
 30
0.0
 11
2.9906381608
 21
6.596764579
 31
0.0
  0
LINE
  5
7D
330
1F
100
AcDbEntity
  8
0
  6
Continuous
 62
     7
370
    30
100
AcDbLine
 10
3.1316383453
 20
6.596764579
 30
0.0
 11
3.1561381423
 21
6.6109095356
 31
0.0
  0
LINE
  5
7E
330
1F
100
AcDbEntity
  8
0
  6
Continuous
 62
     7
370
    30
100
AcDbLine
 10
3.1561381423
 20
6.6664650538
 30
0.0
 11
3.1316383453
 21
6.6806103037
 31
0.0
  0
LINE
  5
7F
330
1F
100
AcDbEntity
  8
0
  6
Continuous
 62
     7
370
    30
100
AcDbLine
 10
2.9906381608
 20
6.6806103037
 30
0.0
 11
2.9661383639
 21
6.6664650538
 31
0.0
  0
LINE
  5
80
330
1F
100
AcDbEntity
  8
0
  6
Continuous
 62
     7
370
    30
100
AcDbLine
 10
2.9661383639
 20
6.5553540174
 30
0.0
 11
2.9906381608
 21
6.5412090608
 31
0.0
  0
LINE
  5
81
330
1F
100
AcDbEntity
  8
0
  6
Continuous
 62
     7
370
    30
100
AcDbLine
 10
3.1316383453
 20
6.5412090608
 30
0.0
 11
3.1561381423
 21
6.5553540174
 31
0.0
  0
LINE
  5
82
330
1F
100
AcDbEntity
  8
0
  6
Continuous
 62
     7
370
    30
100
AcDbLine
 10
3.1561381423
 20
6.5553540174
 30
0.0
 11
3.1316383453
 21
6.5694992673
 31
0.0
  0
LINE
  5
83
330
1F
100
AcDbEntity
  8
0
  6
Continuous
 62
     7
370
    30
100
AcDbLine
 10
2.9906381608
 20
6.5694992673
 30
0.0
 11
2.9661383639
 21
6.5553540174
 31
0.0
  0
LINE
  5
84
330
1F
100
AcDbEntity
  8
0
  6
Continuous
 62
     7
370
    30
100
AcDbLine
 10
2.9661383639
 20
6.4997984992
 30
0.0
 11
2.9906381608
 21
6.4856535426
 31
0.0
  0
LINE
  5
85
330
1F
100
AcDbEntity
  8
0
  6
Continuous
 62
     7
370
    30
100
AcDbLine
 10
3.1316383453
 20
6.4856535426
 30
0.0
 11
3.1561381423
 21
6.4997984992
 31
0.0
  0
LINE
  5
86
330
1F
100
AcDbEntity
  8
0
  6
Continuous
 62
     7
370
    30
100
AcDbLine
 10
3.1561381423
 20
6.444242981
 30
0.0
 11
3.1316383453
 21
6.4583879375
 31
0.0
  0
LINE
  5
87
330
1F
100
AcDbEntity
  8
0
  6
Continuous
 62
     7
370
    30
100
AcDbLine
 10
2.9906381608
 20
6.4583879375
 30
0.0
 11
2.9661383639
 21
6.444242981
 31
0.0
  0
LINE
  5
88
330
1F
100
AcDbEntity
  8
0
  6
Continuous
 62
     7
370
    30
100
AcDbLine
 10
3.1561381423
 20
6.4997984992
 30
0.0
 11
3.1316383453
 21
6.5139434558
 31
0.0
  0
LINE
  5
89
330
1F
100
AcDbEntity
  8
0
  6
Continuous
 62
     7
370
    30
100
AcDbLine
 10
2.9906381608
 20
6.5139434558
 30
0.0
 11
2.9661383639
 21
6.4997984992
 31
0.0
  0
LINE
  5
8A
330
1F
100
AcDbEntity
  8
0
  6
Continuous
 62
     7
370
    30
100
AcDbLine
 10
2.9661383639
 20
6.444242981
 30
0.0
 11
2.9906381608
 21
6.4300980244
 31
0.0
  0
LINE
  5
8B
330
1F
100
AcDbEntity
  8
0
  6
Continuous
 62
     7
370
    30
100
AcDbLine
 10
3.1316383453
 20
6.4300980244
 30
0.0
 11
3.1561381423
 21
6.444242981
 31
0.0
  0
LINE
  5
8C
330
1F
100
AcDbEntity
  8
0
  6
Continuous
 62
     7
370
    30
100
AcDbLine
 10
2.9661383639
 20
6.3886874627
 30
0.0
 11
2.9906381608
 21
6.3745422128
 31
0.0
  0
LINE
  5
8D
330
1F
100
AcDbEntity
  8
0
  6
Continuous
 62
     7
370
    30
100
AcDbLine
 10
3.1316383453
 20
6.3745422128
 30
0.0
 11
3.1561381423
 21
6.3886874627
 31
0.0
  0
LINE
  5
8E
330
1F
100
AcDbEntity
  8
0
  6
Continuous
 62
     7
370
    30
100
AcDbLine
 10
3.1561381423
 20
6.3886874627
 30
0.0
 11
3.1316383453
 21
6.4028324193
 31
0.0
  0
LINE
  5
8F
330
1F
100
AcDbEntity
  8
0
  6
Continuous
 62
     7
370
    30
100
AcDbLine
 10
2.9906381608
 20
6.4028324193
 30
0.0
 11
2.9661383639
 21
6.3886874627
 31
0.0
  0
LINE
  5
90
330
1F
100
AcDbEntity
  8
0
  6
Continuous
 62
     7
370
    30
100
AcDbLine
 10
3.1561381423
 20
6.3331319445
 30
0.0
 11
3.1316383453
 21
6.3472769011
 31
0.0
  0
LINE
  5
91
330
1F
100
AcDbEntity
  8
0
  6
Continuous
 62
     7
370
    30
100
AcDbLine
 10
2.9906381608
 20
6.3472769011
 30
0.0
 11
2.9661383639
 21
6.3331319445
 31
0.0
  0
LINE
  5
92
330
1F
100
AcDbEntity
  8
0
  6
Continuous
 62
     7
370
    30
100
AcDbLine
 10
2.9661383639
 20
6.3331319445
 30
0.0
 11
2.9906381608
 21
6.3189866946
 31
0.0
  0
LINE
  5
93
330
1F
100
AcDbEntity
  8
0
  6
Continuous
 62
     7
370
    30
100
AcDbLine
 10
3.1316383453
 20
6.3189866946
 30
0.0
 11
3.1561381423
 21
6.3331319445
 31
0.0
  0
LINE
  5
94
330
1F
100
AcDbEntity
  8
0
  6
Continuous
 62
     7
370
    30
100
AcDbLine
 10
2.9661383639
 20
6.2775764263
 30
0.0
 11
2.9906381608
 21
6.2634311764
 31
0.0
  0
LINE
  5
95
330
1F
100
AcDbEntity
  8
0
  6
Continuous
 62
     7
370
    30
100
AcDbLine
 10
3.1316383453
 20
6.2634311764
 30
0.0
 11
3.1561381423
 21
6.2775764263
 31
0.0
  0
LINE
  5
96
330
1F
100
AcDbEntity
  8
0
  6
Continuous
 62
     7
370
    30
100
AcDbLine
 10
3.1561381423
 20
6.2220206148
 30
0.0
 11
3.1316383453
 21
6.2361658647
 31
0.0
  0
LINE
  5
97
330
1F
100
AcDbEntity
  8
0
  6
Continuous
 62
     7
370
    30
100
AcDbLine
 10
2.9906381608
 20
6.2361658647
 30
0.0
 11
2.9661383639
 21
6.2220206148
 31
0.0
  0
LINE
  5
98
330
1F
100
AcDbEntity
  8
0
  6
Continuous
 62
     7
370
    30
100
AcDbLine
 10
2.9661383639
 20
6.2220206148
 30
0.0
 11
2.9906381608
 21
6.2078756582
 31
0.0
  0
LINE
  5
99
330
1F
100
AcDbEntity
  8
0
  6
Continuous
 62
     7
370
    30
100
AcDbLine
 10
3.1316383453
 20
6.2078756582
 30
0.0
 11
3.1561381423
 21
6.2220206148
 31
0.0
  0
LINE
  5
9A
330
1F
100
AcDbEntity
  8
0
  6
Continuous
 62
     7
370
    30
100
AcDbLine
 10
3.1561381423
 20
6.2775764263
 30
0.0
 11
3.1316383453
 21
6.2917213829
 31
0.0
  0
LINE
  5
9B
330
1F
100
AcDbEntity
  8
0
  6
Continuous
 62
     7
370
    30
100
AcDbLine
 10
2.9906381608
 20
6.2917213829
 30
0.0
 11
2.9661383639
 21
6.2775764263
 31
0.0
  0
LINE
  5
9C
330
1F
100
AcDbEntity
  8
0
  6
Continuous
 62
     7
370
    30
100
AcDbLine
 10
3.1561381423
 20
6.1664650965
 30
0.0
 11
3.1316383453
 21
6.1806103465
 31
0.0
  0
LINE
  5
9D
330
1F
100
AcDbEntity
  8
0
  6
Continuous
 62
     7
370
    30
100
AcDbLine
 10
2.9906381608
 20
6.1806103465
 30
0.0
 11
2.9661383639
 21
6.1664650965
 31
0.0
  0
LINE
  5
9E
330
1F
100
AcDbEntity
  8
0
  6
Continuous
 62
     7
370
    30
100
AcDbLine
 10
2.9661383639
 20
6.1664650965
 30
0.0
 11
2.9906381608
 21
6.1523201399
 31
0.0
  0
LINE
  5
9F
330
1F
100
AcDbEntity
  8
0
  6
Continuous
 62
     7
370
    30
100
AcDbLine
 10
3.1316383453
 20
6.1523201399
 30
0.0
 11
3.1561381423
 21
6.1664650965
 31
0.0
  0
LINE
  5
A0
330
1F
100
AcDbEntity
  8
0
  6
Continuous
 62
     7
370
    30
100
AcDbLine
 10
3.1561381423
 20
6.0553540601
 30
0.0
 11
3.1316383453
 21
6.0694990167
 31
0.0
  0
LINE
  5
A1
330
1F
100
AcDbEntity
  8
0
  6
Continuous
 62
     7
370
    30
100
AcDbLine
 10
2.9906381608
 20
6.0694990167
 30
0.0
 11
2.9661383639
 21
6.0553540601
 31
0.0
  0
LINE
  5
A2
330
1F
100
AcDbEntity
  8
0
  6
Continuous
 62
     7
370
    30
100
AcDbLine
 10
3.1561381423
 20
6.1109095783
 30
0.0
 11
3.1316383453
 21
6.1250548282
 31
0.0
  0
LINE
  5
A3
330
1F
100
AcDbEntity
  8
0
  6
Continuous
 62
     7
370
    30
100
AcDbLine
 10
2.9906381608
 20
6.1250548282
 30
0.0
 11
2.9661383639
 21
6.1109095783
 31
0.0
  0
LINE
  5
A4
330
1F
100
AcDbEntity
  8
0
  6
Continuous
 62
     7
370
    30
100
AcDbLine
 10
2.9661383639
 20
6.0553540601
 30
0.0
 11
2.9906381608
 21
6.0412091035
 31
0.0
  0
LINE
  5
A5
330
1F
100
AcDbEntity
  8
0
  6
Continuous
 62
     7
370
    30
100
AcDbLine
 10
3.1316383453
 20
6.0412091035
 30
0.0
 11
3.1561381423
 21
6.0553540601
 31
0.0
  0
LINE
  5
A6
330
1F
100
AcDbEntity
  8
0
  6
Continuous
 62
     7
370
    30
100
AcDbLine
 10
3.1561381423
 20
5.9997985419
 30
0.0
 11
3.1316383453
 21
6.0139434985
 31
0.0
  0
LINE
  5
A7
330
1F
100
AcDbEntity
  8
0
  6
Continuous
 62
     7
370
    30
100
AcDbLine
 10
2.9906381608
 20
6.0139434985
 30
0.0
 11
2.9661383639
 21
5.9997985419
 31
0.0
  0
LINE
  5
A8
330
1F
100
AcDbEntity
  8
0
  6
Continuous
 62
     7
370
    30
100
AcDbLine
 10
2.9661383639
 20
6.1109095783
 30
0.0
 11
2.9906381608
 21
6.0967646217
 31
0.0
  0
LINE
  5
A9
330
1F
100
AcDbEntity
  8
0
  6
Continuous
 62
     7
370
    30
100
AcDbLine
 10
3.1316383453
 20
6.0967646217
 30
0.0
 11
3.1561381423
 21
6.1109095783
 31
0.0
  0
LINE
  5
AA
330
1F
100
AcDbEntity
  8
0
  6
Continuous
 62
     7
370
    30
100
AcDbLine
 10
2.9661383639
 20
5.9997985419
 30
0.0
 11
2.9906381608
 21
5.985653292
 31
0.0
  0
LINE
  5
AB
330
1F
100
AcDbEntity
  8
0
  6
Continuous
 62
     7
370
    30
100
AcDbLine
 10
3.1316383453
 20
5.985653292
 30
0.0
 11
3.1561381423
 21
5.9997985419
 31
0.0
  0
LINE
  5
AC
330
1F
100
AcDbEntity
  8
0
  6
Continuous
 62
     7
370
    30
100
AcDbLine
 10
3.1561381423
 20
5.8886875054
 30
0.0
 11
3.1316383453
 21
5.902832462
 31
0.0
  0
LINE
  5
AD
330
1F
100
AcDbEntity
  8
0
  6
Continuous
 62
     7
370
    30
100
AcDbLine
 10
2.9906381608
 20
5.902832462
 30
0.0
 11
2.9661383639
 21
5.8886875054
 31
0.0
  0
LINE
  5
AE
330
1F
100
AcDbEntity
  8
0
  6
Continuous
 62
     7
370
    30
100
AcDbLine
 10
3.1561381423
 20
5.9442430237
 30
0.0
 11
3.1316383453
 21
5.9583879803
 31
0.0
  0
LINE
  5
AF
330
1F
100
AcDbEntity
  8
0
  6
Continuous
 62
     7
370
    30
100
AcDbLine
 10
2.9906381608
 20
5.9583879803
 30
0.0
 11
2.9661383639
 21
5.9442430237
 31
0.0
  0
LINE
  5
B0
330
1F
100
AcDbEntity
  8
0
  6
Continuous
 62
     7
370
    30
100
AcDbLine
 10
2.9661383639
 20
5.8886875054
 30
0.0
 11
2.9906381608
 21
5.8745422555
 31
0.0
  0
LINE
  5
B1
330
1F
100
AcDbEntity
  8
0
  6
Continuous
 62
     7
370
    30
100
AcDbLine
 10
3.1316383453
 20
5.8745422555
 30
0.0
 11
3.1561381423
 21
5.8886875054
 31
0.0
  0
LINE
  5
B2
330
1F
100
AcDbEntity
  8
0
  6
Continuous
 62
     7
370
    30
100
AcDbLine
 10
2.9661383639
 20
5.9442430237
 30
0.0
 11
2.9906381608
 21
5.9300977737
 31
0.0
  0
LINE
  5
B3
330
1F
100
AcDbEntity
  8
0
  6
Continuous
 62
     7
370
    30
100
AcDbLine
 10
3.1316383453
 20
5.9300977737
 30
0.0
 11
3.1561381423
 21
5.9442430237
 31
0.0
  0
LINE
  5
B4
330
1F
100
AcDbEntity
  8
0
  6
Continuous
 62
     7
370
    30
100
AcDbLine
 10
2.9661383639
 20
5.8331318406
 30
0.0
 11
2.9906381608
 21
5.8189867373
 31
0.0
  0
LINE
  5
B5
330
1F
100
AcDbEntity
  8
0
  6
Continuous
 62
     7
370
    30
100
AcDbLine
 10
3.1316383453
 20
5.8189867373
 30
0.0
 11
3.1561381423
 21
5.8331318406
 31
0.0
  0
LINE
  5
B6
330
1F
100
AcDbEntity
  8
0
  6
Continuous
 62
     7
370
    30
100
AcDbLine
 10
3.1561381423
 20
5.8331318406
 30
0.0
 11
3.1316383453
 21
5.8472769438
 31
0.0
  0
LINE
  5
B7
330
1F
100
AcDbEntity
  8
0
  6
Continuous
 62
     7
370
    30
100
AcDbLine
 10
2.9906381608
 20
5.8472769438
 30
0.0
 11
2.9661383639
 21
5.8331318406
 31
0.0
  0
LINE
  5
B8
330
1F
100
AcDbEntity
  8
0
  6
Continuous
 62
     7
370
    30
100
AcDbLine
 10
3.1561381423
 20
5.7775763223
 30
0.0
 11
3.1316383453
 21
5.7917214256
 31
0.0
  0
LINE
  5
B9
330
1F
100
AcDbEntity
  8
0
  6
Continuous
 62
     7
370
    30
100
AcDbLine
 10
2.9906381608
 20
5.7917214256
 30
0.0
 11
2.9661383639
 21
5.7775763223
 31
0.0
  0
LINE
  5
BA
330
1F
100
AcDbEntity
  8
0
  6
Continuous
 62
     7
370
    30
100
AcDbLine
 10
2.9661383639
 20
5.7775763223
 30
0.0
 11
2.9906381608
 21
5.7634312191
 31
0.0
  0
LINE
  5
BB
330
1F
100
AcDbEntity
  8
0
  6
Continuous
 62
     7
370
    30
100
AcDbLine
 10
3.1316383453
 20
5.7634312191
 30
0.0
 11
3.1561381423
 21
5.7775763223
 31
0.0
  0
LINE
  5
BC
330
1F
100
AcDbEntity
  8
0
  6
Continuous
 62
     7
370
    30
100
AcDbLine
 10
2.9661383639
 20
5.7220208041
 30
0.0
 11
2.9906381608
 21
5.7078757009
 31
0.0
  0
LINE
  5
BD
330
1F
100
AcDbEntity
  8
0
  6
Continuous
 62
     7
370
    30
100
AcDbLine
 10
3.1316383453
 20
5.7078757009
 30
0.0
 11
3.1561381423
 21
5.7220208041
 31
0.0
  0
LINE
  5
BE
330
1F
100
AcDbEntity
  8
0
  6
Continuous
 62
     7
370
    30
100
AcDbLine
 10
2.9661383639
 20
5.6664651392
 30
0.0
 11
2.9906381608
 21
5.652320036
 31
0.0
  0
LINE
  5
BF
330
1F
100
AcDbEntity
  8
0
  6
Continuous
 62
     7
370
    30
100
AcDbLine
 10
3.1316383453
 20
5.652320036
 30
0.0
 11
3.1561381423
 21
5.6664651392
 31
0.0
  0
LINE
  5
C0
330
1F
100
AcDbEntity
  8
0
  6
Continuous
 62
     7
370
    30
100
AcDbLine
 10
3.1561381423
 20
5.6664651392
 30
0.0
 11
3.1316383453
 21
5.6806102425
 31
0.0
  0
LINE
  5
C1
330
1F
100
AcDbEntity
  8
0
  6
Continuous
 62
     7
370
    30
100
AcDbLine
 10
2.9906381608
 20
5.6806102425
 30
0.0
 11
2.9661383639
 21
5.6664651392
 31
0.0
  0
LINE
  5
C2
330
1F
100
AcDbEntity
  8
0
  6
Continuous
 62
     7
370
    30
100
AcDbLine
 10
3.1561381423
 20
5.7220208041
 30
0.0
 11
3.1316383453
 21
5.7361657607
 31
0.0
  0
LINE
  5
C3
330
1F
100
AcDbEntity
  8
0
  6
Continuous
 62
     7
370
    30
100
AcDbLine
 10
2.9906381608
 20
5.7361657607
 30
0.0
 11
2.9661383639
 21
5.7220208041
 31
0.0
  0
LINE
  5
C4
330
1F
100
AcDbEntity
  8
0
  6
Continuous
 62
     7
370
    30
100
AcDbLine
 10
2.9661383639
 20
5.610909621
 30
0.0
 11
2.9906381608
 21
5.5967645178
 31
0.0
  0
LINE
  5
C5
330
1F
100
AcDbEntity
  8
0
  6
Continuous
 62
     7
370
    30
100
AcDbLine
 10
3.1316383453
 20
5.5967645178
 30
0.0
 11
3.1561381423
 21
5.610909621
 31
0.0
  0
LINE
  5
C6
330
1F
100
AcDbEntity
  8
0
  6
Continuous
 62
     7
370
    30
100
AcDbLine
 10
3.1561381423
 20
5.610909621
 30
0.0
 11
3.1316383453
 21
5.6250547243
 31
0.0
  0
LINE
  5
C7
330
1F
100
AcDbEntity
  8
0
  6
Continuous
 62
     7
370
    30
100
AcDbLine
 10
2.9906381608
 20
5.6250547243
 30
0.0
 11
2.9661383639
 21
5.610909621
 31
0.0
  0
LINE
  5
C8
330
1F
100
AcDbEntity
  8
0
  6
Continuous
 62
     7
370
    30
100
AcDbLine
 10
3.1561381423
 20
5.4997985846
 30
0.0
 11
3.1316383453
 21
5.5139435412
 31
0.0
  0
LINE
  5
C9
330
1F
100
AcDbEntity
  8
0
  6
Continuous
 62
     7
370
    30
100
AcDbLine
 10
2.9906381608
 20
5.5139435412
 30
0.0
 11
2.9661383639
 21
5.4997985846
 31
0.0
  0
LINE
  5
CA
330
1F
100
AcDbEntity
  8
0
  6
Continuous
 62
     7
370
    30
100
AcDbLine
 10
3.1561381423
 20
5.5553541028
 30
0.0
 11
3.1316383453
 21
5.5694992061
 31
0.0
  0
LINE
  5
CB
330
1F
100
AcDbEntity
  8
0
  6
Continuous
 62
     7
370
    30
100
AcDbLine
 10
2.9906381608
 20
5.5694992061
 30
0.0
 11
2.9661383639
 21
5.5553541028
 31
0.0
  0
LINE
  5
CC
330
1F
100
AcDbEntity
  8
0
  6
Continuous
 62
     7
370
    30
100
AcDbLine
 10
2.9661383639
 20
5.5553541028
 30
0.0
 11
2.9906381608
 21
5.5412089995
 31
0.0
  0
LINE
  5
CD
330
1F
100
AcDbEntity
  8
0
  6
Continuous
 62
     7
370
    30
100
AcDbLine
 10
3.1316383453
 20
5.5412089995
 30
0.0
 11
3.1561381423
 21
5.5553541028
 31
0.0
  0
LINE
  5
CE
330
1F
100
AcDbEntity
  8
0
  6
Continuous
 62
     7
370
    30
100
AcDbLine
 10
2.9661383639
 20
5.4997985846
 30
0.0
 11
2.9906381608
 21
5.4856534813
 31
0.0
  0
LINE
  5
CF
330
1F
100
AcDbEntity
  8
0
  6
Continuous
 62
     7
370
    30
100
AcDbLine
 10
3.1316383453
 20
5.4856534813
 30
0.0
 11
3.1561381423
 21
5.4997985846
 31
0.0
  0
LINE
  5
D0
330
1F
100
AcDbEntity
  8
0
  6
Continuous
 62
     7
370
    30
100
AcDbLine
 10
3.1561381423
 20
5.4442429197
 30
0.0
 11
3.1316383453
 21
5.458388023
 31
0.0
  0
LINE
  5
D1
330
1F
100
AcDbEntity
  8
0
  6
Continuous
 62
     7
370
    30
100
AcDbLine
 10
2.9906381608
 20
5.458388023
 30
0.0
 11
2.9661383639
 21
5.4442429197
 31
0.0
  0
LINE
  5
D2
330
1F
100
AcDbEntity
  8
0
  6
Continuous
 62
     7
370
    30
100
AcDbLine
 10
2.9661383639
 20
5.4442429197
 30
0.0
 11
2.9906381608
 21
5.4300978164
 31
0.0
  0
LINE
  5
D3
330
1F
100
AcDbEntity
  8
0
  6
Continuous
 62
     7
370
    30
100
AcDbLine
 10
3.1316383453
 20
5.4300978164
 30
0.0
 11
3.1561381423
 21
5.4442429197
 31
0.0
  0
LINE
  5
D4
330
1F
100
AcDbEntity
  8
0
  6
Continuous
 62
     7
370
    30
100
AcDbLine
 10
3.1543872559
 20
5.3896983631
 30
0.0
 11
3.1316383453
 21
5.4028325047
 31
0.0
  0
LINE
  5
D5
330
1F
100
AcDbEntity
  8
0
  6
Continuous
 62
     7
370
    30
100
AcDbLine
 10
2.9906381608
 20
5.4028325047
 30
0.0
 11
2.9678892503
 21
5.3896983631
 31
0.0
  0
LINE
  5
D6
330
1F
100
AcDbEntity
  8
0
  6
Continuous
 62
     7
370
    30
100
AcDbLine
 10
3.1316383453
 20
6.8018186369
 30
0.0
 11
3.0611382531
 21
6.9720206974
 31
0.0
  0
LINE
  5
D7
330
1F
100
AcDbEntity
  8
0
  6
Continuous
 62
     7
370
    30
100
AcDbLine
 10
3.0611382531
 20
6.9720206974
 30
0.0
 11
2.9906381608
 21
6.8018186369
 31
0.0
  0
LINE
  5
D8
330
1F
100
AcDbEntity
  8
0
  6
Continuous
 62
     7
370
    30
100
AcDbLine
 10
3.1316383453
 20
6.736165822
 30
0.0
 11
3.1316383453
 21
6.7634311337
 31
0.0
  0
LINE
  5
D9
330
1F
100
AcDbEntity
  8
0
  6
Continuous
 62
     7
370
    30
100
AcDbLine
 10
2.9906381608
 20
6.7634311337
 30
0.0
 11
2.9906381608
 21
6.736165822
 31
0.0
  0
LINE
  5
DA
330
1F
100
AcDbEntity
  8
0
  6
Continuous
 62
     7
370
    30
100
AcDbLine
 10
3.1316383453
 20
6.7917213402
 30
0.0
 11
3.1316383453
 21
6.8018186369
 31
0.0
  0
LINE
  5
DB
330
1F
100
AcDbEntity
  8
0
  6
Continuous
 62
     7
370
    30
100
AcDbLine
 10
2.9906381608
 20
6.8018186369
 30
0.0
 11
2.9906381608
 21
6.7917213402
 31
0.0
  0
LINE
  5
DC
330
1F
100
AcDbEntity
  8
0
  6
Continuous
 62
     7
370
    30
100
AcDbLine
 10
3.1316383453
 20
6.6806103037
 30
0.0
 11
3.1316383453
 21
6.7078756154
 31
0.0
  0
LINE
  5
DD
330
1F
100
AcDbEntity
  8
0
  6
Continuous
 62
     7
370
    30
100
AcDbLine
 10
2.9906381608
 20
6.7078756154
 30
0.0
 11
2.9906381608
 21
6.6806103037
 31
0.0
  0
LINE
  5
DE
330
1F
100
AcDbEntity
  8
0
  6
Continuous
 62
     7
370
    30
100
AcDbLine
 10
3.1316383453
 20
6.6250547855
 30
0.0
 11
3.1316383453
 21
6.6523200972
 31
0.0
  0
LINE
  5
DF
330
1F
100
AcDbEntity
  8
0
  6
Continuous
 62
     7
370
    30
100
AcDbLine
 10
2.9906381608
 20
6.6523200972
 30
0.0
 11
2.9906381608
 21
6.6250547855
 31
0.0
  0
LINE
  5
E0
330
1F
100
AcDbEntity
  8
0
  6
Continuous
 62
     7
370
    30
100
AcDbLine
 10
3.1316383453
 20
6.5694992673
 30
0.0
 11
3.1316383453
 21
6.596764579
 31
0.0
  0
LINE
  5
E1
330
1F
100
AcDbEntity
  8
0
  6
Continuous
 62
     7
370
    30
100
AcDbLine
 10
2.9906381608
 20
6.596764579
 30
0.0
 11
2.9906381608
 21
6.5694992673
 31
0.0
  0
LINE
  5
E2
330
1F
100
AcDbEntity
  8
0
  6
Continuous
 62
     7
370
    30
100
AcDbLine
 10
3.1316383453
 20
6.5139434558
 30
0.0
 11
3.1316383453
 21
6.5412090608
 31
0.0
  0
LINE
  5
E3
330
1F
100
AcDbEntity
  8
0
  6
Continuous
 62
     7
370
    30
100
AcDbLine
 10
2.9906381608
 20
6.5412090608
 30
0.0
 11
2.9906381608
 21
6.5139434558
 31
0.0
  0
LINE
  5
E4
330
1F
100
AcDbEntity
  8
0
  6
Continuous
 62
     7
370
    30
100
AcDbLine
 10
3.1316383453
 20
6.4583879375
 30
0.0
 11
3.1316383453
 21
6.4856535426
 31
0.0
  0
LINE
  5
E5
330
1F
100
AcDbEntity
  8
0
  6
Continuous
 62
     7
370
    30
100
AcDbLine
 10
2.9906381608
 20
6.4856535426
 30
0.0
 11
2.9906381608
 21
6.4583879375
 31
0.0
  0
LINE
  5
E6
330
1F
100
AcDbEntity
  8
0
  6
Continuous
 62
     7
370
    30
100
AcDbLine
 10
3.1316383453
 20
6.4028324193
 30
0.0
 11
3.1316383453
 21
6.4300980244
 31
0.0
  0
LINE
  5
E7
330
1F
100
AcDbEntity
  8
0
  6
Continuous
 62
     7
370
    30
100
AcDbLine
 10
2.9906381608
 20
6.4300980244
 30
0.0
 11
2.9906381608
 21
6.4028324193
 31
0.0
  0
LINE
  5
E8
330
1F
100
AcDbEntity
  8
0
  6
Continuous
 62
     7
370
    30
100
AcDbLine
 10
3.1316383453
 20
6.3472769011
 30
0.0
 11
3.1316383453
 21
6.3745422128
 31
0.0
  0
LINE
  5
E9
330
1F
100
AcDbEntity
  8
0
  6
Continuous
 62
     7
370
    30
100
AcDbLine
 10
2.9906381608
 20
6.3745422128
 30
0.0
 11
2.9906381608
 21
6.3472769011
 31
0.0
  0
LINE
  5
EA
330
1F
100
AcDbEntity
  8
0
  6
Continuous
 62
     7
370
    30
100
AcDbLine
 10
3.1316383453
 20
6.2917213829
 30
0.0
 11
3.1316383453
 21
6.3189866946
 31
0.0
  0
LINE
  5
EB
330
1F
100
AcDbEntity
  8
0
  6
Continuous
 62
     7
370
    30
100
AcDbLine
 10
2.9906381608
 20
6.3189866946
 30
0.0
 11
2.9906381608
 21
6.2917213829
 31
0.0
  0
LINE
  5
EC
330
1F
100
AcDbEntity
  8
0
  6
Continuous
 62
     7
370
    30
100
AcDbLine
 10
3.1316383453
 20
6.2361658647
 30
0.0
 11
3.1316383453
 21
6.2634311764
 31
0.0
  0
LINE
  5
ED
330
1F
100
AcDbEntity
  8
0
  6
Continuous
 62
     7
370
    30
100
AcDbLine
 10
2.9906381608
 20
6.2634311764
 30
0.0
 11
2.9906381608
 21
6.2361658647
 31
0.0
  0
LINE
  5
EE
330
1F
100
AcDbEntity
  8
0
  6
Continuous
 62
     7
370
    30
100
AcDbLine
 10
3.1316383453
 20
6.1806103465
 30
0.0
 11
3.1316383453
 21
6.2078756582
 31
0.0
  0
LINE
  5
EF
330
1F
100
AcDbEntity
  8
0
  6
Continuous
 62
     7
370
    30
100
AcDbLine
 10
2.9906381608
 20
6.2078756582
 30
0.0
 11
2.9906381608
 21
6.1806103465
 31
0.0
  0
LINE
  5
F0
330
1F
100
AcDbEntity
  8
0
  6
Continuous
 62
     7
370
    30
100
AcDbLine
 10
3.1316383453
 20
6.1250548282
 30
0.0
 11
3.1316383453
 21
6.1523201399
 31
0.0
  0
LINE
  5
F1
330
1F
100
AcDbEntity
  8
0
  6
Continuous
 62
     7
370
    30
100
AcDbLine
 10
2.9906381608
 20
6.1523201399
 30
0.0
 11
2.9906381608
 21
6.1250548282
 31
0.0
  0
LINE
  5
F2
330
1F
100
AcDbEntity
  8
0
  6
Continuous
 62
     7
370
    30
100
AcDbLine
 10
3.1316383453
 20
6.0694990167
 30
0.0
 11
3.1316383453
 21
6.0967646217
 31
0.0
  0
LINE
  5
F3
330
1F
100
AcDbEntity
  8
0
  6
Continuous
 62
     7
370
    30
100
AcDbLine
 10
2.9906381608
 20
6.0967646217
 30
0.0
 11
2.9906381608
 21
6.0694990167
 31
0.0
  0
LINE
  5
F4
330
1F
100
AcDbEntity
  8
0
  6
Continuous
 62
     7
370
    30
100
AcDbLine
 10
3.1316383453
 20
6.0139434985
 30
0.0
 11
3.1316383453
 21
6.0412091035
 31
0.0
  0
LINE
  5
F5
330
1F
100
AcDbEntity
  8
0
  6
Continuous
 62
     7
370
    30
100
AcDbLine
 10
2.9906381608
 20
6.0412091035
 30
0.0
 11
2.9906381608
 21
6.0139434985
 31
0.0
  0
LINE
  5
F6
330
1F
100
AcDbEntity
  8
0
  6
Continuous
 62
     7
370
    30
100
AcDbLine
 10
3.1316383453
 20
5.9583879803
 30
0.0
 11
3.1316383453
 21
5.985653292
 31
0.0
  0
LINE
  5
F7
330
1F
100
AcDbEntity
  8
0
  6
Continuous
 62
     7
370
    30
100
AcDbLine
 10
2.9906381608
 20
5.985653292
 30
0.0
 11
2.9906381608
 21
5.9583879803
 31
0.0
  0
LINE
  5
F8
330
1F
100
AcDbEntity
  8
0
  6
Continuous
 62
     7
370
    30
100
AcDbLine
 10
3.1316383453
 20
5.902832462
 30
0.0
 11
3.1316383453
 21
5.9300977737
 31
0.0
  0
LINE
  5
F9
330
1F
100
AcDbEntity
  8
0
  6
Continuous
 62
     7
370
    30
100
AcDbLine
 10
2.9906381608
 20
5.9300977737
 30
0.0
 11
2.9906381608
 21
5.902832462
 31
0.0
  0
LINE
  5
FA
330
1F
100
AcDbEntity
  8
0
  6
Continuous
 62
     7
370
    30
100
AcDbLine
 10
3.1316383453
 20
5.8472769438
 30
0.0
 11
3.1316383453
 21
5.8745422555
 31
0.0
  0
LINE
  5
FB
330
1F
100
AcDbEntity
  8
0
  6
Continuous
 62
     7
370
    30
100
AcDbLine
 10
2.9906381608
 20
5.8745422555
 30
0.0
 11
2.9906381608
 21
5.8472769438
 31
0.0
  0
LINE
  5
FC
330
1F
100
AcDbEntity
  8
0
  6
Continuous
 62
     7
370
    30
100
AcDbLine
 10
3.1316383453
 20
5.7917214256
 30
0.0
 11
3.1316383453
 21
5.8189867373
 31
0.0
  0
LINE
  5
FD
330
1F
100
AcDbEntity
  8
0
  6
Continuous
 62
     7
370
    30
100
AcDbLine
 10
2.9906381608
 20
5.8189867373
 30
0.0
 11
2.9906381608
 21
5.7917214256
 31
0.0
  0
LINE
  5
FE
330
1F
100
AcDbEntity
  8
0
  6
Continuous
 62
     7
370
    30
100
AcDbLine
 10
3.1316383453
 20
5.7361657607
 30
0.0
 11
3.1316383453
 21
5.7634312191
 31
0.0
  0
LINE
  5
FF
330
1F
100
AcDbEntity
  8
0
  6
Continuous
 62
     7
370
    30
100
AcDbLine
 10
2.9906381608
 20
5.7634312191
 30
0.0
 11
2.9906381608
 21
5.7361657607
 31
0.0
  0
LINE
  5
100
330
1F
100
AcDbEntity
  8
0
  6
Continuous
 62
     7
370
    30
100
AcDbLine
 10
3.1316383453
 20
5.6806102425
 30
0.0
 11
3.1316383453
 21
5.7078757009
 31
0.0
  0
LINE
  5
101
330
1F
100
AcDbEntity
  8
0
  6
Continuous
 62
     7
370
    30
100
AcDbLine
 10
2.9906381608
 20
5.7078757009
 30
0.0
 11
2.9906381608
 21
5.6806102425
 31
0.0
  0
LINE
  5
102
330
1F
100
AcDbEntity
  8
0
  6
Continuous
 62
     7
370
    30
100
AcDbLine
 10
3.1316383453
 20
5.5694992061
 30
0.0
 11
3.1316383453
 21
5.5967645178
 31
0.0
  0
LINE
  5
103
330
1F
100
AcDbEntity
  8
0
  6
Continuous
 62
     7
370
    30
100
AcDbLine
 10
2.9906381608
 20
5.5967645178
 30
0.0
 11
2.9906381608
 21
5.5694992061
 31
0.0
  0
LINE
  5
104
330
1F
100
AcDbEntity
  8
0
  6
Continuous
 62
     7
370
    30
100
AcDbLine
 10
3.1316383453
 20
5.6250547243
 30
0.0
 11
3.1316383453
 21
5.652320036
 31
0.0
  0
LINE
  5
105
330
1F
100
AcDbEntity
  8
0
  6
Continuous
 62
     7
370
    30
100
AcDbLine
 10
2.9906381608
 20
5.652320036
 30
0.0
 11
2.9906381608
 21
5.6250547243
 31
0.0
  0
LINE
  5
106
330
1F
100
AcDbEntity
  8
0
  6
Continuous
 62
     7
370
    30
100
AcDbLine
 10
3.1316383453
 20
5.5139435412
 30
0.0
 11
3.1316383453
 21
5.5412089995
 31
0.0
  0
LINE
  5
107
330
1F
100
AcDbEntity
  8
0
  6
Continuous
 62
     7
370
    30
100
AcDbLine
 10
2.9906381608
 20
5.5412089995
 30
0.0
 11
2.9906381608
 21
5.5139435412
 31
0.0
  0
LINE
  5
108
330
1F
100
AcDbEntity
  8
0
  6
Continuous
 62
     7
370
    30
100
AcDbLine
 10
3.1316383453
 20
5.4028325047
 30
0.0
 11
3.1316383453
 21
5.4300978164
 31
0.0
  0
LINE
  5
109
330
1F
100
AcDbEntity
  8
0
  6
Continuous
 62
     7
370
    30
100
AcDbLine
 10
2.9906381608
 20
5.4300978164
 30
0.0
 11
2.9906381608
 21
5.4028325047
 31
0.0
  0
LINE
  5
10A
330
1F
100
AcDbEntity
  8
0
  6
Continuous
 62
     7
370
    30
100
AcDbLine
 10
3.1316383453
 20
5.458388023
 30
0.0
 11
3.1316383453
 21
5.4856534813
 31
0.0
  0
LINE
  5
10B
330
1F
100
AcDbEntity
  8
0
  6
Continuous
 62
     7
370
    30
100
AcDbLine
 10
2.9906381608
 20
5.4856534813
 30
0.0
 11
2.9906381608
 21
5.458388023
 31
0.0
  0
LINE
  5
10C
330
1F
100
AcDbEntity
  8
0
  6
Continuous
 62
     7
370
    30
100
AcDbLine
 10
8.4061381338
 20
6.7775763836
 30
0.0
 11
8.3816383369
 21
6.7917213402
 31
0.0
  0
LINE
  5
10D
330
1F
100
AcDbEntity
  8
0
  6
Continuous
 62
     7
370
    30
100
AcDbLine
 10
8.2406381524
 20
6.7917213402
 30
0.0
 11
8.2161383554
 21
6.7775763836
 31
0.0
  0
LINE
  5
10E
330
1F
100
AcDbEntity
  8
0
  6
Continuous
 62
     7
370
    30
100
AcDbLine
 10
8.2161383554
 20
6.7775763836
 30
0.0
 11
8.2406381524
 21
6.7634311337
 31
0.0
  0
LINE
  5
10F
330
1F
100
AcDbEntity
  8
0
  6
Continuous
 62
     7
370
    30
100
AcDbLine
 10
8.3816383369
 20
6.7634311337
 30
0.0
 11
8.4061381338
 21
6.7775763836
 31
0.0
  0
LINE
  5
110
330
1F
100
AcDbEntity
  8
0
  6
Continuous
 62
     7
370
    30
100
AcDbLine
 10
8.4061381338
 20
6.7220208654
 30
0.0
 11
8.3816383369
 21
6.736165822
 31
0.0
  0
LINE
  5
111
330
1F
100
AcDbEntity
  8
0
  6
Continuous
 62
     7
370
    30
100
AcDbLine
 10
8.2406381524
 20
6.736165822
 30
0.0
 11
8.2161383554
 21
6.7220208654
 31
0.0
  0
LINE
  5
112
330
1F
100
AcDbEntity
  8
0
  6
Continuous
 62
     7
370
    30
100
AcDbLine
 10
8.2161383554
 20
6.7220208654
 30
0.0
 11
8.2406381524
 21
6.7078756154
 31
0.0
  0
LINE
  5
113
330
1F
100
AcDbEntity
  8
0
  6
Continuous
 62
     7
370
    30
100
AcDbLine
 10
8.3816383369
 20
6.7078756154
 30
0.0
 11
8.4061381338
 21
6.7220208654
 31
0.0
  0
LINE
  5
114
330
1F
100
AcDbEntity
  8
0
  6
Continuous
 62
     7
370
    30
100
AcDbLine
 10
8.2161383554
 20
6.6664650538
 30
0.0
 11
8.2406381524
 21
6.6523200972
 31
0.0
  0
LINE
  5
115
330
1F
100
AcDbEntity
  8
0
  6
Continuous
 62
     7
370
    30
100
AcDbLine
 10
8.3816383369
 20
6.6523200972
 30
0.0
 11
8.4061381338
 21
6.6664650538
 31
0.0
  0
LINE
  5
116
330
1F
100
AcDbEntity
  8
0
  6
Continuous
 62
     7
370
    30
100
AcDbLine
 10
8.2161383554
 20
6.6109095356
 30
0.0
 11
8.2406381524
 21
6.596764579
 31
0.0
  0
LINE
  5
117
330
1F
100
AcDbEntity
  8
0
  6
Continuous
 62
     7
370
    30
100
AcDbLine
 10
8.3816383369
 20
6.596764579
 30
0.0
 11
8.4061381338
 21
6.6109095356
 31
0.0
  0
LINE
  5
118
330
1F
100
AcDbEntity
  8
0
  6
Continuous
 62
     7
370
    30
100
AcDbLine
 10
8.4061381338
 20
6.6109095356
 30
0.0
 11
8.3816383369
 21
6.6250547855
 31
0.0
  0
LINE
  5
119
330
1F
100
AcDbEntity
  8
0
  6
Continuous
 62
     7
370
    30
100
AcDbLine
 10
8.2406381524
 20
6.6250547855
 30
0.0
 11
8.2161383554
 21
6.6109095356
 31
0.0
  0
LINE
  5
11A
330
1F
100
AcDbEntity
  8
0
  6
Continuous
 62
     7
370
    30
100
AcDbLine
 10
8.4061381338
 20
6.6664650538
 30
0.0
 11
8.3816383369
 21
6.6806103037
 31
0.0
  0
LINE
  5
11B
330
1F
100
AcDbEntity
  8
0
  6
Continuous
 62
     7
370
    30
100
AcDbLine
 10
8.2406381524
 20
6.6806103037
 30
0.0
 11
8.2161383554
 21
6.6664650538
 31
0.0
  0
LINE
  5
11C
330
1F
100
AcDbEntity
  8
0
  6
Continuous
 62
     7
370
    30
100
AcDbLine
 10
8.4061381338
 20
6.5553540174
 30
0.0
 11
8.3816383369
 21
6.5694992673
 31
0.0
  0
LINE
  5
11D
330
1F
100
AcDbEntity
  8
0
  6
Continuous
 62
     7
370
    30
100
AcDbLine
 10
8.2406381524
 20
6.5694992673
 30
0.0
 11
8.2161383554
 21
6.5553540174
 31
0.0
  0
LINE
  5
11E
330
1F
100
AcDbEntity
  8
0
  6
Continuous
 62
     7
370
    30
100
AcDbLine
 10
8.2161383554
 20
6.5553540174
 30
0.0
 11
8.2406381524
 21
6.5412090608
 31
0.0
  0
LINE
  5
11F
330
1F
100
AcDbEntity
  8
0
  6
Continuous
 62
     7
370
    30
100
AcDbLine
 10
8.3816383369
 20
6.5412090608
 30
0.0
 11
8.4061381338
 21
6.5553540174
 31
0.0
  0
LINE
  5
120
330
1F
100
AcDbEntity
  8
0
  6
Continuous
 62
     7
370
    30
100
AcDbLine
 10
8.4061381338
 20
6.4997984992
 30
0.0
 11
8.3816383369
 21
6.5139434558
 31
0.0
  0
LINE
  5
121
330
1F
100
AcDbEntity
  8
0
  6
Continuous
 62
     7
370
    30
100
AcDbLine
 10
8.2406381524
 20
6.5139434558
 30
0.0
 11
8.2161383554
 21
6.4997984992
 31
0.0
  0
LINE
  5
122
330
1F
100
AcDbEntity
  8
0
  6
Continuous
 62
     7
370
    30
100
AcDbLine
 10
8.4061381338
 20
6.444242981
 30
0.0
 11
8.3816383369
 21
6.4583879375
 31
0.0
  0
LINE
  5
123
330
1F
100
AcDbEntity
  8
0
  6
Continuous
 62
     7
370
    30
100
AcDbLine
 10
8.2406381524
 20
6.4583879375
 30
0.0
 11
8.2161383554
 21
6.444242981
 31
0.0
  0
LINE
  5
124
330
1F
100
AcDbEntity
  8
0
  6
Continuous
 62
     7
370
    30
100
AcDbLine
 10
8.2161383554
 20
6.4997984992
 30
0.0
 11
8.2406381524
 21
6.4856535426
 31
0.0
  0
LINE
  5
125
330
1F
100
AcDbEntity
  8
0
  6
Continuous
 62
     7
370
    30
100
AcDbLine
 10
8.3816383369
 20
6.4856535426
 30
0.0
 11
8.4061381338
 21
6.4997984992
 31
0.0
  0
LINE
  5
126
330
1F
100
AcDbEntity
  8
0
  6
Continuous
 62
     7
370
    30
100
AcDbLine
 10
8.2161383554
 20
6.444242981
 30
0.0
 11
8.2406381524
 21
6.4300980244
 31
0.0
  0
LINE
  5
127
330
1F
100
AcDbEntity
  8
0
  6
Continuous
 62
     7
370
    30
100
AcDbLine
 10
8.3816383369
 20
6.4300980244
 30
0.0
 11
8.4061381338
 21
6.444242981
 31
0.0
  0
LINE
  5
128
330
1F
100
AcDbEntity
  8
0
  6
Continuous
 62
     7
370
    30
100
AcDbLine
 10
8.2161383554
 20
6.3886874627
 30
0.0
 11
8.2406381524
 21
6.3745422128
 31
0.0
  0
LINE
  5
129
330
1F
100
AcDbEntity
  8
0
  6
Continuous
 62
     7
370
    30
100
AcDbLine
 10
8.3816383369
 20
6.3745422128
 30
0.0
 11
8.4061381338
 21
6.3886874627
 31
0.0
  0
LINE
  5
12A
330
1F
100
AcDbEntity
  8
0
  6
Continuous
 62
     7
370
    30
100
AcDbLine
 10
8.4061381338
 20
6.3886874627
 30
0.0
 11
8.3816383369
 21
6.4028324193
 31
0.0
  0
LINE
  5
12B
330
1F
100
AcDbEntity
  8
0
  6
Continuous
 62
     7
370
    30
100
AcDbLine
 10
8.2406381524
 20
6.4028324193
 30
0.0
 11
8.2161383554
 21
6.3886874627
 31
0.0
  0
LINE
  5
12C
330
1F
100
AcDbEntity
  8
0
  6
Continuous
 62
     7
370
    30
100
AcDbLine
 10
8.4061381338
 20
6.3331319445
 30
0.0
 11
8.3816383369
 21
6.3472769011
 31
0.0
  0
LINE
  5
12D
330
1F
100
AcDbEntity
  8
0
  6
Continuous
 62
     7
370
    30
100
AcDbLine
 10
8.2406381524
 20
6.3472769011
 30
0.0
 11
8.2161383554
 21
6.3331319445
 31
0.0
  0
LINE
  5
12E
330
1F
100
AcDbEntity
  8
0
  6
Continuous
 62
     7
370
    30
100
AcDbLine
 10
8.2161383554
 20
6.3331319445
 30
0.0
 11
8.2406381524
 21
6.3189866946
 31
0.0
  0
LINE
  5
12F
330
1F
100
AcDbEntity
  8
0
  6
Continuous
 62
     7
370
    30
100
AcDbLine
 10
8.3816383369
 20
6.3189866946
 30
0.0
 11
8.4061381338
 21
6.3331319445
 31
0.0
  0
LINE
  5
130
330
1F
100
AcDbEntity
  8
0
  6
Continuous
 62
     7
370
    30
100
AcDbLine
 10
8.2161383554
 20
6.2775764263
 30
0.0
 11
8.2406381524
 21
6.2634311764
 31
0.0
  0
LINE
  5
131
330
1F
100
AcDbEntity
  8
0
  6
Continuous
 62
     7
370
    30
100
AcDbLine
 10
8.3816383369
 20
6.2634311764
 30
0.0
 11
8.4061381338
 21
6.2775764263
 31
0.0
  0
LINE
  5
132
330
1F
100
AcDbEntity
  8
0
  6
Continuous
 62
     7
370
    30
100
AcDbLine
 10
8.4061381338
 20
6.2220206148
 30
0.0
 11
8.3816383369
 21
6.2361658647
 31
0.0
  0
LINE
  5
133
330
1F
100
AcDbEntity
  8
0
  6
Continuous
 62
     7
370
    30
100
AcDbLine
 10
8.2406381524
 20
6.2361658647
 30
0.0
 11
8.2161383554
 21
6.2220206148
 31
0.0
  0
LINE
  5
134
330
1F
100
AcDbEntity
  8
0
  6
Continuous
 62
     7
370
    30
100
AcDbLine
 10
8.2161383554
 20
6.2220206148
 30
0.0
 11
8.2406381524
 21
6.2078756582
 31
0.0
  0
LINE
  5
135
330
1F
100
AcDbEntity
  8
0
  6
Continuous
 62
     7
370
    30
100
AcDbLine
 10
8.3816383369
 20
6.2078756582
 30
0.0
 11
8.4061381338
 21
6.2220206148
 31
0.0
  0
LINE
  5
136
330
1F
100
AcDbEntity
  8
0
  6
Continuous
 62
     7
370
    30
100
AcDbLine
 10
8.4061381338
 20
6.2775764263
 30
0.0
 11
8.3816383369
 21
6.2917213829
 31
0.0
  0
LINE
  5
137
330
1F
100
AcDbEntity
  8
0
  6
Continuous
 62
     7
370
    30
100
AcDbLine
 10
8.2406381524
 20
6.2917213829
 30
0.0
 11
8.2161383554
 21
6.2775764263
 31
0.0
  0
LINE
  5
138
330
1F
100
AcDbEntity
  8
0
  6
Continuous
 62
     7
370
    30
100
AcDbLine
 10
8.4061381338
 20
6.1664650965
 30
0.0
 11
8.3816383369
 21
6.1806103465
 31
0.0
  0
LINE
  5
139
330
1F
100
AcDbEntity
  8
0
  6
Continuous
 62
     7
370
    30
100
AcDbLine
 10
8.2406381524
 20
6.1806103465
 30
0.0
 11
8.2161383554
 21
6.1664650965
 31
0.0
  0
LINE
  5
13A
330
1F
100
AcDbEntity
  8
0
  6
Continuous
 62
     7
370
    30
100
AcDbLine
 10
8.4061381338
 20
6.1109095783
 30
0.0
 11
8.3816383369
 21
6.1250548282
 31
0.0
  0
LINE
  5
13B
330
1F
100
AcDbEntity
  8
0
  6
Continuous
 62
     7
370
    30
100
AcDbLine
 10
8.2406381524
 20
6.1250548282
 30
0.0
 11
8.2161383554
 21
6.1109095783
 31
0.0
  0
LINE
  5
13C
330
1F
100
AcDbEntity
  8
0
  6
Continuous
 62
     7
370
    30
100
AcDbLine
 10
8.2161383554
 20
6.1664650965
 30
0.0
 11
8.2406381524
 21
6.1523201399
 31
0.0
  0
LINE
  5
13D
330
1F
100
AcDbEntity
  8
0
  6
Continuous
 62
     7
370
    30
100
AcDbLine
 10
8.3816383369
 20
6.1523201399
 30
0.0
 11
8.4061381338
 21
6.1664650965
 31
0.0
  0
LINE
  5
13E
330
1F
100
AcDbEntity
  8
0
  6
Continuous
 62
     7
370
    30
100
AcDbLine
 10
8.4061381338
 20
6.0553540601
 30
0.0
 11
8.3816383369
 21
6.0694990167
 31
0.0
  0
LINE
  5
13F
330
1F
100
AcDbEntity
  8
0
  6
Continuous
 62
     7
370
    30
100
AcDbLine
 10
8.2406381524
 20
6.0694990167
 30
0.0
 11
8.2161383554
 21
6.0553540601
 31
0.0
  0
LINE
  5
140
330
1F
100
AcDbEntity
  8
0
  6
Continuous
 62
     7
370
    30
100
AcDbLine
 10
8.2161383554
 20
6.1109095783
 30
0.0
 11
8.2406381524
 21
6.0967646217
 31
0.0
  0
LINE
  5
141
330
1F
100
AcDbEntity
  8
0
  6
Continuous
 62
     7
370
    30
100
AcDbLine
 10
8.3816383369
 20
6.0967646217
 30
0.0
 11
8.4061381338
 21
6.1109095783
 31
0.0
  0
LINE
  5
142
330
1F
100
AcDbEntity
  8
0
  6
Continuous
 62
     7
370
    30
100
AcDbLine
 10
8.4061381338
 20
5.9997985419
 30
0.0
 11
8.3816383369
 21
6.0139434985
 31
0.0
  0
LINE
  5
143
330
1F
100
AcDbEntity
  8
0
  6
Continuous
 62
     7
370
    30
100
AcDbLine
 10
8.2406381524
 20
6.0139434985
 30
0.0
 11
8.2161383554
 21
5.9997985419
 31
0.0
  0
LINE
  5
144
330
1F
100
AcDbEntity
  8
0
  6
Continuous
 62
     7
370
    30
100
AcDbLine
 10
8.2161383554
 20
6.0553540601
 30
0.0
 11
8.2406381524
 21
6.0412091035
 31
0.0
  0
LINE
  5
145
330
1F
100
AcDbEntity
  8
0
  6
Continuous
 62
     7
370
    30
100
AcDbLine
 10
8.3816383369
 20
6.0412091035
 30
0.0
 11
8.4061381338
 21
6.0553540601
 31
0.0
  0
LINE
  5
146
330
1F
100
AcDbEntity
  8
0
  6
Continuous
 62
     7
370
    30
100
AcDbLine
 10
8.2161383554
 20
5.9997985419
 30
0.0
 11
8.2406381524
 21
5.985653292
 31
0.0
  0
LINE
  5
147
330
1F
100
AcDbEntity
  8
0
  6
Continuous
 62
     7
370
    30
100
AcDbLine
 10
8.3816383369
 20
5.985653292
 30
0.0
 11
8.4061381338
 21
5.9997985419
 31
0.0
  0
LINE
  5
148
330
1F
100
AcDbEntity
  8
0
  6
Continuous
 62
     7
370
    30
100
AcDbLine
 10
8.2161383554
 20
5.8886875054
 30
0.0
 11
8.2406381524
 21
5.8745422555
 31
0.0
  0
LINE
  5
149
330
1F
100
AcDbEntity
  8
0
  6
Continuous
 62
     7
370
    30
100
AcDbLine
 10
8.3816383369
 20
5.8745422555
 30
0.0
 11
8.4061381338
 21
5.8886875054
 31
0.0
  0
LINE
  5
14A
330
1F
100
AcDbEntity
  8
0
  6
Continuous
 62
     7
370
    30
100
AcDbLine
 10
8.2161383554
 20
5.9442430237
 30
0.0
 11
8.2406381524
 21
5.9300977737
 31
0.0
  0
LINE
  5
14B
330
1F
100
AcDbEntity
  8
0
  6
Continuous
 62
     7
370
    30
100
AcDbLine
 10
8.3816383369
 20
5.9300977737
 30
0.0
 11
8.4061381338
 21
5.9442430237
 31
0.0
  0
LINE
  5
14C
330
1F
100
AcDbEntity
  8
0
  6
Continuous
 62
     7
370
    30
100
AcDbLine
 10
8.4061381338
 20
5.8886875054
 30
0.0
 11
8.3816383369
 21
5.902832462
 31
0.0
  0
LINE
  5
14D
330
1F
100
AcDbEntity
  8
0
  6
Continuous
 62
     7
370
    30
100
AcDbLine
 10
8.2406381524
 20
5.902832462
 30
0.0
 11
8.2161383554
 21
5.8886875054
 31
0.0
  0
LINE
  5
14E
330
1F
100
AcDbEntity
  8
0
  6
Continuous
 62
     7
370
    30
100
AcDbLine
 10
8.4061381338
 20
5.9442430237
 30
0.0
 11
8.3816383369
 21
5.9583879803
 31
0.0
  0
LINE
  5
14F
330
1F
100
AcDbEntity
  8
0
  6
Continuous
 62
     7
370
    30
100
AcDbLine
 10
8.2406381524
 20
5.9583879803
 30
0.0
 11
8.2161383554
 21
5.9442430237
 31
0.0
  0
LINE
  5
150
330
1F
100
AcDbEntity
  8
0
  6
Continuous
 62
     7
370
    30
100
AcDbLine
 10
8.2161383554
 20
5.8331318406
 30
0.0
 11
8.2406381524
 21
5.8189867373
 31
0.0
  0
LINE
  5
151
330
1F
100
AcDbEntity
  8
0
  6
Continuous
 62
     7
370
    30
100
AcDbLine
 10
8.3816383369
 20
5.8189867373
 30
0.0
 11
8.4061381338
 21
5.8331318406
 31
0.0
  0
LINE
  5
152
330
1F
100
AcDbEntity
  8
0
  6
Continuous
 62
     7
370
    30
100
AcDbLine
 10
8.4061381338
 20
5.8331318406
 30
0.0
 11
8.3816383369
 21
5.8472769438
 31
0.0
  0
LINE
  5
153
330
1F
100
AcDbEntity
  8
0
  6
Continuous
 62
     7
370
    30
100
AcDbLine
 10
8.2406381524
 20
5.8472769438
 30
0.0
 11
8.2161383554
 21
5.8331318406
 31
0.0
  0
LINE
  5
154
330
1F
100
AcDbEntity
  8
0
  6
Continuous
 62
     7
370
    30
100
AcDbLine
 10
8.4061381338
 20
5.7775763223
 30
0.0
 11
8.3816383369
 21
5.7917214256
 31
0.0
  0
LINE
  5
155
330
1F
100
AcDbEntity
  8
0
  6
Continuous
 62
     7
370
    30
100
AcDbLine
 10
8.2406381524
 20
5.7917214256
 30
0.0
 11
8.2161383554
 21
5.7775763223
 31
0.0
  0
LINE
  5
156
330
1F
100
AcDbEntity
  8
0
  6
Continuous
 62
     7
370
    30
100
AcDbLine
 10
8.2161383554
 20
5.7775763223
 30
0.0
 11
8.2406381524
 21
5.7634312191
 31
0.0
  0
LINE
  5
157
330
1F
100
AcDbEntity
  8
0
  6
Continuous
 62
     7
370
    30
100
AcDbLine
 10
8.3816383369
 20
5.7634312191
 30
0.0
 11
8.4061381338
 21
5.7775763223
 31
0.0
  0
LINE
  5
158
330
1F
100
AcDbEntity
  8
0
  6
Continuous
 62
     7
370
    30
100
AcDbLine
 10
8.4061381338
 20
5.7220208041
 30
0.0
 11
8.3816383369
 21
5.7361657607
 31
0.0
  0
LINE
  5
159
330
1F
100
AcDbEntity
  8
0
  6
Continuous
 62
     7
370
    30
100
AcDbLine
 10
8.2406381524
 20
5.7361657607
 30
0.0
 11
8.2161383554
 21
5.7220208041
 31
0.0
  0
LINE
  5
15A
330
1F
100
AcDbEntity
  8
0
  6
Continuous
 62
     7
370
    30
100
AcDbLine
 10
8.4061381338
 20
5.6664651392
 30
0.0
 11
8.3816383369
 21
5.6806102425
 31
0.0
  0
LINE
  5
15B
330
1F
100
AcDbEntity
  8
0
  6
Continuous
 62
     7
370
    30
100
AcDbLine
 10
8.2406381524
 20
5.6806102425
 30
0.0
 11
8.2161383554
 21
5.6664651392
 31
0.0
  0
LINE
  5
15C
330
1F
100
AcDbEntity
  8
0
  6
Continuous
 62
     7
370
    30
100
AcDbLine
 10
8.2161383554
 20
5.6664651392
 30
0.0
 11
8.2406381524
 21
5.652320036
 31
0.0
  0
LINE
  5
15D
330
1F
100
AcDbEntity
  8
0
  6
Continuous
 62
     7
370
    30
100
AcDbLine
 10
8.3816383369
 20
5.652320036
 30
0.0
 11
8.4061381338
 21
5.6664651392
 31
0.0
  0
LINE
  5
15E
330
1F
100
AcDbEntity
  8
0
  6
Continuous
 62
     7
370
    30
100
AcDbLine
 10
8.2161383554
 20
5.7220208041
 30
0.0
 11
8.2406381524
 21
5.7078757009
 31
0.0
  0
LINE
  5
15F
330
1F
100
AcDbEntity
  8
0
  6
Continuous
 62
     7
370
    30
100
AcDbLine
 10
8.3816383369
 20
5.7078757009
 30
0.0
 11
8.4061381338
 21
5.7220208041
 31
0.0
  0
LINE
  5
160
330
1F
100
AcDbEntity
  8
0
  6
Continuous
 62
     7
370
    30
100
AcDbLine
 10
8.4061381338
 20
5.610909621
 30
0.0
 11
8.3816383369
 21
5.6250547243
 31
0.0
  0
LINE
  5
161
330
1F
100
AcDbEntity
  8
0
  6
Continuous
 62
     7
370
    30
100
AcDbLine
 10
8.2406381524
 20
5.6250547243
 30
0.0
 11
8.2161383554
 21
5.610909621
 31
0.0
  0
LINE
  5
162
330
1F
100
AcDbEntity
  8
0
  6
Continuous
 62
     7
370
    30
100
AcDbLine
 10
8.2161383554
 20
5.610909621
 30
0.0
 11
8.2406381524
 21
5.5967645178
 31
0.0
  0
LINE
  5
163
330
1F
100
AcDbEntity
  8
0
  6
Continuous
 62
     7
370
    30
100
AcDbLine
 10
8.3816383369
 20
5.5967645178
 30
0.0
 11
8.4061381338
 21
5.610909621
 31
0.0
  0
LINE
  5
164
330
1F
100
AcDbEntity
  8
0
  6
Continuous
 62
     7
370
    30
100
AcDbLine
 10
8.4061381338
 20
5.4997985846
 30
0.0
 11
8.3816383369
 21
5.5139435412
 31
0.0
  0
LINE
  5
165
330
1F
100
AcDbEntity
  8
0
  6
Continuous
 62
     7
370
    30
100
AcDbLine
 10
8.2406381524
 20
5.5139435412
 30
0.0
 11
8.2161383554
 21
5.4997985846
 31
0.0
  0
LINE
  5
166
330
1F
100
AcDbEntity
  8
0
  6
Continuous
 62
     7
370
    30
100
AcDbLine
 10
8.4061381338
 20
5.5553541028
 30
0.0
 11
8.3816383369
 21
5.5694992061
 31
0.0
  0
LINE
  5
167
330
1F
100
AcDbEntity
  8
0
  6
Continuous
 62
     7
370
    30
100
AcDbLine
 10
8.2406381524
 20
5.5694992061
 30
0.0
 11
8.2161383554
 21
5.5553541028
 31
0.0
  0
LINE
  5
168
330
1F
100
AcDbEntity
  8
0
  6
Continuous
 62
     7
370
    30
100
AcDbLine
 10
8.4061381338
 20
5.4442429197
 30
0.0
 11
8.3816383369
 21
5.458388023
 31
0.0
  0
LINE
  5
169
330
1F
100
AcDbEntity
  8
0
  6
Continuous
 62
     7
370
    30
100
AcDbLine
 10
8.2406381524
 20
5.458388023
 30
0.0
 11
8.2161383554
 21
5.4442429197
 31
0.0
  0
LINE
  5
16A
330
1F
100
AcDbEntity
  8
0
  6
Continuous
 62
     7
370
    30
100
AcDbLine
 10
8.2161383554
 20
5.4997985846
 30
0.0
 11
8.2406381524
 21
5.4856534813
 31
0.0
  0
LINE
  5
16B
330
1F
100
AcDbEntity
  8
0
  6
Continuous
 62
     7
370
    30
100
AcDbLine
 10
8.3816383369
 20
5.4856534813
 30
0.0
 11
8.4061381338
 21
5.4997985846
 31
0.0
  0
LINE
  5
16C
330
1F
100
AcDbEntity
  8
0
  6
Continuous
 62
     7
370
    30
100
AcDbLine
 10
8.2161383554
 20
5.5553541028
 30
0.0
 11
8.2406381524
 21
5.5412089995
 31
0.0
  0
LINE
  5
16D
330
1F
100
AcDbEntity
  8
0
  6
Continuous
 62
     7
370
    30
100
AcDbLine
 10
8.3816383369
 20
5.5412089995
 30
0.0
 11
8.4061381338
 21
5.5553541028
 31
0.0
  0
LINE
  5
16E
330
1F
100
AcDbEntity
  8
0
  6
Continuous
 62
     7
370
    30
100
AcDbLine
 10
8.2161383554
 20
5.4442429197
 30
0.0
 11
8.2406381524
 21
5.4300978164
 31
0.0
  0
LINE
  5
16F
330
1F
100
AcDbEntity
  8
0
  6
Continuous
 62
     7
370
    30
100
AcDbLine
 10
8.3816383369
 20
5.4300978164
 30
0.0
 11
8.4061381338
 21
5.4442429197
 31
0.0
  0
LINE
  5
170
330
1F
100
AcDbEntity
  8
0
  6
Continuous
 62
     7
370
    30
100
AcDbLine
 10
8.4043872474
 20
5.3896983631
 30
0.0
 11
8.3816383369
 21
5.4028325047
 31
0.0
  0
LINE
  5
171
330
1F
100
AcDbEntity
  8
0
  6
Continuous
 62
     7
370
    30
100
AcDbLine
 10
8.2406381524
 20
5.4028325047
 30
0.0
 11
8.2178892418
 21
5.3896983631
 31
0.0
  0
LINE
  5
172
330
1F
100
AcDbEntity
  8
0
  6
Continuous
 62
     7
370
    30
100
AcDbLine
 10
8.3816383369
 20
6.8018186369
 30
0.0
 11
8.3111382446
 21
6.9720206974
 31
0.0
  0
LINE
  5
173
330
1F
100
AcDbEntity
  8
0
  6
Continuous
 62
     7
370
    30
100
AcDbLine
 10
8.3111382446
 20
6.9720206974
 30
0.0
 11
8.2406381524
 21
6.8018186369
 31
0.0
  0
LINE
  5
174
330
1F
100
AcDbEntity
  8
0
  6
Continuous
 62
     7
370
    30
100
AcDbLine
 10
8.3816383369
 20
6.736165822
 30
0.0
 11
8.3816383369
 21
6.7634311337
 31
0.0
  0
LINE
  5
175
330
1F
100
AcDbEntity
  8
0
  6
Continuous
 62
     7
370
    30
100
AcDbLine
 10
8.2406381524
 20
6.7634311337
 30
0.0
 11
8.2406381524
 21
6.736165822
 31
0.0
  0
LINE
  5
176
330
1F
100
AcDbEntity
  8
0
  6
Continuous
 62
     7
370
    30
100
AcDbLine
 10
8.3816383369
 20
6.7917213402
 30
0.0
 11
8.3816383369
 21
6.8018186369
 31
0.0
  0
LINE
  5
177
330
1F
100
AcDbEntity
  8
0
  6
Continuous
 62
     7
370
    30
100
AcDbLine
 10
8.2406381524
 20
6.8018186369
 30
0.0
 11
8.2406381524
 21
6.7917213402
 31
0.0
  0
LINE
  5
178
330
1F
100
AcDbEntity
  8
0
  6
Continuous
 62
     7
370
    30
100
AcDbLine
 10
8.3816383369
 20
6.6806103037
 30
0.0
 11
8.3816383369
 21
6.7078756154
 31
0.0
  0
LINE
  5
179
330
1F
100
AcDbEntity
  8
0
  6
Continuous
 62
     7
370
    30
100
AcDbLine
 10
8.2406381524
 20
6.7078756154
 30
0.0
 11
8.2406381524
 21
6.6806103037
 31
0.0
  0
LINE
  5
17A
330
1F
100
AcDbEntity
  8
0
  6
Continuous
 62
     7
370
    30
100
AcDbLine
 10
8.3816383369
 20
6.6250547855
 30
0.0
 11
8.3816383369
 21
6.6523200972
 31
0.0
  0
LINE
  5
17B
330
1F
100
AcDbEntity
  8
0
  6
Continuous
 62
     7
370
    30
100
AcDbLine
 10
8.2406381524
 20
6.6523200972
 30
0.0
 11
8.2406381524
 21
6.6250547855
 31
0.0
  0
LINE
  5
17C
330
1F
100
AcDbEntity
  8
0
  6
Continuous
 62
     7
370
    30
100
AcDbLine
 10
8.3816383369
 20
6.5694992673
 30
0.0
 11
8.3816383369
 21
6.596764579
 31
0.0
  0
LINE
  5
17D
330
1F
100
AcDbEntity
  8
0
  6
Continuous
 62
     7
370
    30
100
AcDbLine
 10
8.2406381524
 20
6.596764579
 30
0.0
 11
8.2406381524
 21
6.5694992673
 31
0.0
  0
LINE
  5
17E
330
1F
100
AcDbEntity
  8
0
  6
Continuous
 62
     7
370
    30
100
AcDbLine
 10
8.3816383369
 20
6.5139434558
 30
0.0
 11
8.3816383369
 21
6.5412090608
 31
0.0
  0
LINE
  5
17F
330
1F
100
AcDbEntity
  8
0
  6
Continuous
 62
     7
370
    30
100
AcDbLine
 10
8.2406381524
 20
6.5412090608
 30
0.0
 11
8.2406381524
 21
6.5139434558
 31
0.0
  0
LINE
  5
180
330
1F
100
AcDbEntity
  8
0
  6
Continuous
 62
     7
370
    30
100
AcDbLine
 10
8.3816383369
 20
6.4583879375
 30
0.0
 11
8.3816383369
 21
6.4856535426
 31
0.0
  0
LINE
  5
181
330
1F
100
AcDbEntity
  8
0
  6
Continuous
 62
     7
370
    30
100
AcDbLine
 10
8.2406381524
 20
6.4856535426
 30
0.0
 11
8.2406381524
 21
6.4583879375
 31
0.0
  0
LINE
  5
182
330
1F
100
AcDbEntity
  8
0
  6
Continuous
 62
     7
370
    30
100
AcDbLine
 10
8.3816383369
 20
6.3472769011
 30
0.0
 11
8.3816383369
 21
6.3745422128
 31
0.0
  0
LINE
  5
183
330
1F
100
AcDbEntity
  8
0
  6
Continuous
 62
     7
370
    30
100
AcDbLine
 10
8.2406381524
 20
6.3745422128
 30
0.0
 11
8.2406381524
 21
6.3472769011
 31
0.0
  0
LINE
  5
184
330
1F
100
AcDbEntity
  8
0
  6
Continuous
 62
     7
370
    30
100
AcDbLine
 10
8.3816383369
 20
6.4028324193
 30
0.0
 11
8.3816383369
 21
6.4300980244
 31
0.0
  0
LINE
  5
185
330
1F
100
AcDbEntity
  8
0
  6
Continuous
 62
     7
370
    30
100
AcDbLine
 10
8.2406381524
 20
6.4300980244
 30
0.0
 11
8.2406381524
 21
6.4028324193
 31
0.0
  0
LINE
  5
186
330
1F
100
AcDbEntity
  8
0
  6
Continuous
 62
     7
370
    30
100
AcDbLine
 10
8.3816383369
 20
6.2917213829
 30
0.0
 11
8.3816383369
 21
6.3189866946
 31
0.0
  0
LINE
  5
187
330
1F
100
AcDbEntity
  8
0
  6
Continuous
 62
     7
370
    30
100
AcDbLine
 10
8.2406381524
 20
6.3189866946
 30
0.0
 11
8.2406381524
 21
6.2917213829
 31
0.0
  0
LINE
  5
188
330
1F
100
AcDbEntity
  8
0
  6
Continuous
 62
     7
370
    30
100
AcDbLine
 10
8.3816383369
 20
6.2361658647
 30
0.0
 11
8.3816383369
 21
6.2634311764
 31
0.0
  0
LINE
  5
189
330
1F
100
AcDbEntity
  8
0
  6
Continuous
 62
     7
370
    30
100
AcDbLine
 10
8.2406381524
 20
6.2634311764
 30
0.0
 11
8.2406381524
 21
6.2361658647
 31
0.0
  0
LINE
  5
18A
330
1F
100
AcDbEntity
  8
0
  6
Continuous
 62
     7
370
    30
100
AcDbLine
 10
8.3816383369
 20
6.1806103465
 30
0.0
 11
8.3816383369
 21
6.2078756582
 31
0.0
  0
LINE
  5
18B
330
1F
100
AcDbEntity
  8
0
  6
Continuous
 62
     7
370
    30
100
AcDbLine
 10
8.2406381524
 20
6.2078756582
 30
0.0
 11
8.2406381524
 21
6.1806103465
 31
0.0
  0
LINE
  5
18C
330
1F
100
AcDbEntity
  8
0
  6
Continuous
 62
     7
370
    30
100
AcDbLine
 10
8.3816383369
 20
6.1250548282
 30
0.0
 11
8.3816383369
 21
6.1523201399
 31
0.0
  0
LINE
  5
18D
330
1F
100
AcDbEntity
  8
0
  6
Continuous
 62
     7
370
    30
100
AcDbLine
 10
8.2406381524
 20
6.1523201399
 30
0.0
 11
8.2406381524
 21
6.1250548282
 31
0.0
  0
LINE
  5
18E
330
1F
100
AcDbEntity
  8
0
  6
Continuous
 62
     7
370
    30
100
AcDbLine
 10
8.3816383369
 20
6.0694990167
 30
0.0
 11
8.3816383369
 21
6.0967646217
 31
0.0
  0
LINE
  5
18F
330
1F
100
AcDbEntity
  8
0
  6
Continuous
 62
     7
370
    30
100
AcDbLine
 10
8.2406381524
 20
6.0967646217
 30
0.0
 11
8.2406381524
 21
6.0694990167
 31
0.0
  0
LINE
  5
190
330
1F
100
AcDbEntity
  8
0
  6
Continuous
 62
     7
370
    30
100
AcDbLine
 10
8.3816383369
 20
5.9583879803
 30
0.0
 11
8.3816383369
 21
5.985653292
 31
0.0
  0
LINE
  5
191
330
1F
100
AcDbEntity
  8
0
  6
Continuous
 62
     7
370
    30
100
AcDbLine
 10
8.2406381524
 20
5.985653292
 30
0.0
 11
8.2406381524
 21
5.9583879803
 31
0.0
  0
LINE
  5
192
330
1F
100
AcDbEntity
  8
0
  6
Continuous
 62
     7
370
    30
100
AcDbLine
 10
8.3816383369
 20
6.0139434985
 30
0.0
 11
8.3816383369
 21
6.0412091035
 31
0.0
  0
LINE
  5
193
330
1F
100
AcDbEntity
  8
0
  6
Continuous
 62
     7
370
    30
100
AcDbLine
 10
8.2406381524
 20
6.0412091035
 30
0.0
 11
8.2406381524
 21
6.0139434985
 31
0.0
  0
LINE
  5
194
330
1F
100
AcDbEntity
  8
0
  6
Continuous
 62
     7
370
    30
100
AcDbLine
 10
8.3816383369
 20
5.902832462
 30
0.0
 11
8.3816383369
 21
5.9300977737
 31
0.0
  0
LINE
  5
195
330
1F
100
AcDbEntity
  8
0
  6
Continuous
 62
     7
370
    30
100
AcDbLine
 10
8.2406381524
 20
5.9300977737
 30
0.0
 11
8.2406381524
 21
5.902832462
 31
0.0
  0
LINE
  5
196
330
1F
100
AcDbEntity
  8
0
  6
Continuous
 62
     7
370
    30
100
AcDbLine
 10
8.3816383369
 20
5.8472769438
 30
0.0
 11
8.3816383369
 21
5.8745422555
 31
0.0
  0
LINE
  5
197
330
1F
100
AcDbEntity
  8
0
  6
Continuous
 62
     7
370
    30
100
AcDbLine
 10
8.2406381524
 20
5.8745422555
 30
0.0
 11
8.2406381524
 21
5.8472769438
 31
0.0
  0
LINE
  5
198
330
1F
100
AcDbEntity
  8
0
  6
Continuous
 62
     7
370
    30
100
AcDbLine
 10
8.3816383369
 20
5.7917214256
 30
0.0
 11
8.3816383369
 21
5.8189867373
 31
0.0
  0
LINE
  5
199
330
1F
100
AcDbEntity
  8
0
  6
Continuous
 62
     7
370
    30
100
AcDbLine
 10
8.2406381524
 20
5.8189867373
 30
0.0
 11
8.2406381524
 21
5.7917214256
 31
0.0
  0
LINE
  5
19A
330
1F
100
AcDbEntity
  8
0
  6
Continuous
 62
     7
370
    30
100
AcDbLine
 10
8.3816383369
 20
5.7361657607
 30
0.0
 11
8.3816383369
 21
5.7634312191
 31
0.0
  0
LINE
  5
19B
330
1F
100
AcDbEntity
  8
0
  6
Continuous
 62
     7
370
    30
100
AcDbLine
 10
8.2406381524
 20
5.7634312191
 30
0.0
 11
8.2406381524
 21
5.7361657607
 31
0.0
  0
LINE
  5
19C
330
1F
100
AcDbEntity
  8
0
  6
Continuous
 62
     7
370
    30
100
AcDbLine
 10
8.3816383369
 20
5.6806102425
 30
0.0
 11
8.3816383369
 21
5.7078757009
 31
0.0
  0
LINE
  5
19D
330
1F
100
AcDbEntity
  8
0
  6
Continuous
 62
     7
370
    30
100
AcDbLine
 10
8.2406381524
 20
5.7078757009
 30
0.0
 11
8.2406381524
 21
5.6806102425
 31
0.0
  0
LINE
  5
19E
330
1F
100
AcDbEntity
  8
0
  6
Continuous
 62
     7
370
    30
100
AcDbLine
 10
8.3816383369
 20
5.6250547243
 30
0.0
 11
8.3816383369
 21
5.652320036
 31
0.0
  0
LINE
  5
19F
330
1F
100
AcDbEntity
  8
0
  6
Continuous
 62
     7
370
    30
100
AcDbLine
 10
8.2406381524
 20
5.652320036
 30
0.0
 11
8.2406381524
 21
5.6250547243
 31
0.0
  0
LINE
  5
1A0
330
1F
100
AcDbEntity
  8
0
  6
Continuous
 62
     7
370
    30
100
AcDbLine
 10
8.3816383369
 20
5.5694992061
 30
0.0
 11
8.3816383369
 21
5.5967645178
 31
0.0
  0
LINE
  5
1A1
330
1F
100
AcDbEntity
  8
0
  6
Continuous
 62
     7
370
    30
100
AcDbLine
 10
8.2406381524
 20
5.5967645178
 30
0.0
 11
8.2406381524
 21
5.5694992061
 31
0.0
  0
LINE
  5
1A2
330
1F
100
AcDbEntity
  8
0
  6
Continuous
 62
     7
370
    30
100
AcDbLine
 10
8.3816383369
 20
5.5139435412
 30
0.0
 11
8.3816383369
 21
5.5412089995
 31
0.0
  0
LINE
  5
1A3
330
1F
100
AcDbEntity
  8
0
  6
Continuous
 62
     7
370
    30
100
AcDbLine
 10
8.2406381524
 20
5.5412089995
 30
0.0
 11
8.2406381524
 21
5.5139435412
 31
0.0
  0
LINE
  5
1A4
330
1F
100
AcDbEntity
  8
0
  6
Continuous
 62
     7
370
    30
100
AcDbLine
 10
8.3816383369
 20
5.458388023
 30
0.0
 11
8.3816383369
 21
5.4856534813
 31
0.0
  0
LINE
  5
1A5
330
1F
100
AcDbEntity
  8
0
  6
Continuous
 62
     7
370
    30
100
AcDbLine
 10
8.2406381524
 20
5.4856534813
 30
0.0
 11
8.2406381524
 21
5.458388023
 31
0.0
  0
LINE
  5
1A6
330
1F
100
AcDbEntity
  8
0
  6
Continuous
 62
     7
370
    30
100
AcDbLine
 10
8.3816383369
 20
5.4028325047
 30
0.0
 11
8.3816383369
 21
5.4300978164
 31
0.0
  0
LINE
  5
1A7
330
1F
100
AcDbEntity
  8
0
  6
Continuous
 62
     7
370
    30
100
AcDbLine
 10
8.2406381524
 20
5.4300978164
 30
0.0
 11
8.2406381524
 21
5.4028325047
 31
0.0
  0
ARC
  5
1A8
330
1F
100
AcDbEntity
  8
0
  6
Continuous
 62
     7
370
    30
100
AcDbCircle
 10
8.4986382488
 20
5.3640207373
 30
0.0
 40
0.0150000000000001
100
AcDbArc
 50
229.8738546678
 51
270.0
  0
ARC
  5
1A9
330
1F
100
AcDbEntity
  8
0
  6
Continuous
 62
     7
370
    30
100
AcDbCircle
 10
8.1236382488
 20
5.3640207373
 30
0.0
 40
0.0150000000000012
100
AcDbArc
 50
270.0
 51
310.1261453322
  0
ARC
  5
1AA
330
1F
100
AcDbEntity
  8
0
  6
Continuous
 62
     7
370
    30
100
AcDbCircle
 10
8.3836382488
 20
5.2275802611
 30
0.0
 40
0.1634404761904767
100
AcDbArc
 50
49.8738546678
 51
82.7065271194
  0
ARC
  5
1AB
330
1F
100
AcDbEntity
  8
0
  6
Continuous
 62
     7
370
    30
100
AcDbCircle
 10
8.2386382488
 20
5.2275802611
 30
0.0
 40
0.1634404761904767
100
AcDbArc
 50
97.2934728806
 51
130.1261453322
  0
ARC
  5
1AC
330
1F
100
AcDbEntity
  8
0
  6
Continuous
 62
     7
370
    30
100
AcDbCircle
 10
3.2486382488
 20
5.3640207373
 30
0.0
 40
0.0150000000000004
100
AcDbArc
 50
229.8738546678
 51
270.0
  0
ARC
  5
1AD
330
1F
100
AcDbEntity
  8
0
  6
Continuous
 62
     7
370
    30
100
AcDbCircle
 10
2.8736382488
 20
5.3640207373
 30
0.0
 40
0.0150000000000004
100
AcDbArc
 50
270.0
 51
310.1261453322
  0
ARC
  5
1AE
330
1F
100
AcDbEntity
  8
0
  6
Continuous
 62
     7
370
    30
100
AcDbCircle
 10
3.1336382488
 20
5.2275802611
 30
0.0
 40
0.1634404761904761
100
AcDbArc
 50
49.8738546678
 51
82.7065271194
  0
ARC
  5
1AF
330
1F
100
AcDbEntity
  8
0
  6
Continuous
 62
     7
370
    30
100
AcDbCircle
 10
2.9886382488
 20
5.2275802611
 30
0.0
 40
0.1634404761904764
100
AcDbArc
 50
97.2934728806
 51
130.1261453322
  0
LINE
  5
1B0
330
1F
100
AcDbEntity
  8
0
  6
Continuous
 62
     7
370
    30
100
AcDbLine
 10
8.8111382019
 20
3.3790207373
 30
0.0
 11
9.2111381677
 21
3.3790207373
 31
0.0
  0
ARC
  5
1B1
330
1F
100
AcDbEntity
  8
0
  6
Continuous
 62
     7
370
    30
100
AcDbCircle
 10
9.0861382488
 20
4.4515329028
 30
0.0
 40
0.0750000000000009
100
AcDbArc
 50
0.0
 51
83.3002348222
  0
LINE
  5
1B2
330
1F
100
AcDbEntity
  8
0
  6
Continuous
 62
     7
370
    30
100
AcDbLine
 10
8.8111382019
 20
3.3790207373
 30
0.0
 11
8.8111382019
 21
3.4290207376
 31
0.0
  0
ARC
  5
1B3
330
1F
100
AcDbEntity
  8
0
  6
Continuous
 62
     7
370
    30
100
AcDbCircle
 10
9.2721382488
 20
4.5660207373
 30
0.0
 40
0.111000000000001
100
AcDbArc
 50
236.6638843261
 51
59.2276752321
  0
ARC
  5
1B4
330
1F
100
AcDbEntity
  8
0
  6
Continuous
 62
     7
370
    30
100
AcDbCircle
 10
9.3161382488
 20
4.6399125501
 30
0.0
 40
0.0250000000000004
100
AcDbArc
 50
59.2276752321
 51
239.2276752321
  0
LINE
  5
1B5
330
1F
100
AcDbEntity
  8
0
  6
Continuous
 62
     7
370
    30
100
AcDbLine
 10
9.1611383187
 20
5.1910207116
 30
0.0
 11
9.2111381677
 21
5.1910207116
 31
0.0
  0
LINE
  5
1B6
330
1F
100
AcDbEntity
  8
0
  6
Continuous
 62
     7
370
    30
100
AcDbLine
 10
9.0963217875
 20
4.566020765
 30
0.0
 11
9.1611383187
 21
4.566020765
 31
0.0
  0
LINE
  5
1B7
330
1F
100
AcDbEntity
  8
0
  6
Continuous
 62
     7
370
    30
100
AcDbLine
 10
9.1611383187
 20
3.4290207376
 30
0.0
 11
9.1611383187
 21
4.4515329142
 31
0.0
  0
LINE
  5
1B8
330
1F
100
AcDbEntity
  8
0
  6
Continuous
 62
     7
370
    30
100
AcDbLine
 10
8.8111382019
 20
3.4290207376
 30
0.0
 11
9.1611383187
 21
3.4290207376
 31
0.0
  0
LINE
  5
1B9
330
1F
100
AcDbEntity
  8
0
  6
Continuous
 62
     7
370
    30
100
AcDbLine
 10
9.2111381677
 20
4.4732845763
 30
0.0
 11
9.2111381677
 21
3.3790207373
 31
0.0
  0
ARC
  5
1BA
330
1F
100
AcDbEntity
  8
0
  6
Continuous
 62
     7
370
    30
100
AcDbCircle
 10
9.1001382488
 20
4.5707134381
 30
0.0
 40
0.0449999999999999
100
AcDbArc
 50
180.0
 51
263.3002348222
  0
LINE
  5
1BB
330
1F
100
AcDbEntity
  8
0
  6
Continuous
 62
     7
370
    30
100
AcDbLine
 10
9.1611383187
 20
4.566020765
 30
0.0
 11
9.1611383187
 21
5.1910207116
 31
0.0
  0
ARC
  5
1BC
330
1F
100
AcDbEntity
  8
0
  6
Continuous
 62
     7
370
    30
100
AcDbCircle
 10
9.0651382488
 20
4.6460207373
 30
0.0
 40
0.0100000000000016
100
AcDbArc
 50
90.0
 51
180.0
  0
LINE
  5
1BD
330
1F
100
AcDbEntity
  8
0
  6
Continuous
 62
     7
370
    30
100
AcDbLine
 10
9.0551382632
 20
4.5707134575
 30
0.0
 11
9.0551382632
 21
4.6460207142
 31
0.0
  0
ARC
  5
1BE
330
1F
100
AcDbEntity
  8
0
  6
Continuous
 62
     7
370
    30
100
AcDbCircle
 10
9.2721382488
 20
4.5660207373
 30
0.0
 40
0.0610000000000009
100
AcDbArc
 50
180.0
 51
59.2276752321
  0
LINE
  5
1BF
330
1F
100
AcDbEntity
  8
0
  6
Continuous
 62
     7
370
    30
100
AcDbLine
 10
9.2111381677
 20
5.1910207116
 30
0.0
 11
9.2111381677
 21
4.566020765
 31
0.0
  0
LINE
  5
1C0
330
1F
100
AcDbEntity
  8
0
  6
Continuous
 62
     7
370
    30
100
AcDbLine
 10
9.1051381123
 20
4.6160206874
 30
0.0
 11
9.0963217875
 21
4.566020765
 31
0.0
  0
LINE
  5
1C1
330
1F
100
AcDbEntity
  8
0
  6
Continuous
 62
     7
370
    30
100
AcDbLine
 10
9.0651381744
 20
4.656020772
 30
0.0
 11
9.0715741267
 21
4.656020772
 31
0.0
  0
LINE
  5
1C2
330
1F
100
AcDbEntity
  8
0
  6
Continuous
 62
     7
370
    30
100
AcDbLine
 10
9.0715741267
 20
4.656020772
 30
0.0
 11
9.1051381123
 21
4.6160206874
 31
0.0
  0
ARC
  5
1C3
330
1F
100
AcDbEntity
  8
0
  6
Continuous
 62
     7
370
    30
100
AcDbCircle
 10
2.0561382488
 20
4.6399125501
 30
0.0
 40
0.0250000000000004
100
AcDbArc
 50
300.7723247679
 51
120.7723247679
  0
ARC
  5
1C4
330
1F
100
AcDbEntity
  8
0
  6
Continuous
 62
     7
370
    30
100
AcDbCircle
 10
2.1001382488
 20
4.5660207373
 30
0.0
 40
0.061
100
AcDbArc
 50
120.7723247679
 51
0.0
  0
LINE
  5
1C5
330
1F
100
AcDbEntity
  8
0
  6
Continuous
 62
     7
370
    30
100
AcDbLine
 10
2.1611383299
 20
5.1910207116
 30
0.0
 11
2.211138179
 21
5.1910207116
 31
0.0
  0
LINE
  5
1C6
330
1F
100
AcDbEntity
  8
0
  6
Continuous
 62
     7
370
    30
100
AcDbLine
 10
2.211138179
 20
5.1910207116
 30
0.0
 11
2.211138179
 21
4.566020765
 31
0.0
  0
LINE
  5
1C7
330
1F
100
AcDbEntity
  8
0
  6
Continuous
 62
     7
370
    30
100
AcDbLine
 10
2.211138179
 20
4.566020765
 30
0.0
 11
2.2759547102
 21
4.566020765
 31
0.0
  0
LINE
  5
1C8
330
1F
100
AcDbEntity
  8
0
  6
Continuous
 62
     7
370
    30
100
AcDbLine
 10
2.2759547102
 20
4.566020765
 30
0.0
 11
2.2671383854
 21
4.6160206874
 31
0.0
  0
LINE
  5
1C9
330
1F
100
AcDbEntity
  8
0
  6
Continuous
 62
     7
370
    30
100
AcDbLine
 10
2.2671383854
 20
4.6160206874
 30
0.0
 11
2.300702371
 21
4.656020772
 31
0.0
  0
LINE
  5
1CA
330
1F
100
AcDbEntity
  8
0
  6
Continuous
 62
     7
370
    30
100
AcDbLine
 10
2.300702371
 20
4.656020772
 30
0.0
 11
2.3071383233
 21
4.656020772
 31
0.0
  0
LINE
  5
1CB
330
1F
100
AcDbEntity
  8
0
  6
Continuous
 62
     7
370
    30
100
AcDbLine
 10
2.3171382345
 20
4.6460207142
 30
0.0
 11
2.3171382345
 21
4.5707134575
 31
0.0
  0
ARC
  5
1CC
330
1F
100
AcDbEntity
  8
0
  6
Continuous
 62
     7
370
    30
100
AcDbCircle
 10
2.2721382488
 20
4.5707134381
 30
0.0
 40
0.0449999999999995
100
AcDbArc
 50
276.6997651778
 51
0.0
  0
ARC
  5
1CD
330
1F
100
AcDbEntity
  8
0
  6
Continuous
 62
     7
370
    30
100
AcDbCircle
 10
2.2861382488
 20
4.4515329028
 30
0.0
 40
0.0750000000000009
100
AcDbArc
 50
96.6997651778
 51
180.0
  0
LINE
  5
1CE
330
1F
100
AcDbEntity
  8
0
  6
Continuous
 62
     7
370
    30
100
AcDbLine
 10
2.211138179
 20
4.4515329142
 30
0.0
 11
2.211138179
 21
3.4290207376
 31
0.0
  0
LINE
  5
1CF
330
1F
100
AcDbEntity
  8
0
  6
Continuous
 62
     7
370
    30
100
AcDbLine
 10
2.211138179
 20
3.4290207376
 30
0.0
 11
2.5611382958
 21
3.4290207376
 31
0.0
  0
LINE
  5
1D0
330
1F
100
AcDbEntity
  8
0
  6
Continuous
 62
     7
370
    30
100
AcDbLine
 10
2.5611382958
 20
3.4290207376
 30
0.0
 11
2.5611382958
 21
3.3790207373
 31
0.0
  0
LINE
  5
1D1
330
1F
100
AcDbEntity
  8
0
  6
Continuous
 62
     7
370
    30
100
AcDbLine
 10
2.1611383299
 20
3.3790207373
 30
0.0
 11
2.5611382958
 21
3.3790207373
 31
0.0
  0
ARC
  5
1D2
330
1F
100
AcDbEntity
  8
0
  6
Continuous
 62
     7
370
    30
100
AcDbCircle
 10
2.3071382488
 20
4.6460207373
 30
0.0
 40
0.0100000000000007
100
AcDbArc
 50
0.0
 51
90.0
  0
LINE
  5
1D3
330
1F
100
AcDbEntity
  8
0
  6
Continuous
 62
     7
370
    30
100
AcDbLine
 10
2.1611383299
 20
3.3790207373
 30
0.0
 11
2.1611383299
 21
4.4732845763
 31
0.0
  0
ARC
  5
1D4
330
1F
100
AcDbEntity
  8
0
  6
Continuous
 62
     7
370
    30
100
AcDbCircle
 10
2.1001382488
 20
4.5660207373
 30
0.0
 40
0.1110000000000003
100
AcDbArc
 50
120.7723247679
 51
303.3361156739
  0
LINE
  5
1D5
330
1F
100
AcDbEntity
  8
0
  6
Continuous
 62
     7
370
    30
100
AcDbLine
 10
2.1611383299
 20
4.566020765
 30
0.0
 11
2.1611383299
 21
5.1910207116
 31
0.0
  0
ARC
  5
1D6
330
1F
100
AcDbEntity
  8
0
  6
Continuous
 62
     7
370
    30
100
AcDbCircle
 10
7.3115466661
 20
3.4540207373
 30
0.0
 40
0.0250000000000005
100
AcDbArc
 50
270.0
 51
21.86614513
  0
LINE
  5
1D7
330
1F
100
AcDbEntity
  8
0
  6
Continuous
 62
     7
370
    30
100
AcDbLine
 10
7.567138226
 20
4.6460207142
 30
0.0
 11
7.567138226
 21
4.5707134575
 31
0.0
  0
ARC
  5
1D8
330
1F
100
AcDbEntity
  8
0
  6
Continuous
 62
     7
370
    30
100
AcDbCircle
 10
7.5221382488
 20
4.5707134381
 30
0.0
 40
0.0450000000000008
100
AcDbArc
 50
276.6997651778
 51
0.0
  0
LINE
  5
1D9
330
1F
100
AcDbEntity
  8
0
  6
Continuous
 62
     7
370
    30
100
AcDbLine
 10
7.4611383172
 20
3.5632707355
 30
0.0
 11
7.436138246
 21
3.5632707355
 31
0.0
  0
LINE
  5
1DA
330
1F
100
AcDbEntity
  8
0
  6
Continuous
 62
     7
370
    30
100
AcDbLine
 10
7.0611382047
 20
3.3790207373
 30
0.0
 11
7.8111382873
 21
3.3790207373
 31
0.0
  0
ARC
  5
1DB
330
1F
100
AcDbEntity
  8
0
  6
Continuous
 62
     7
370
    30
100
AcDbCircle
 10
7.5607298316
 20
3.4540207373
 30
0.0
 40
0.0250000000000005
100
AcDbArc
 50
158.13385487
 51
270.0
  0
LINE
  5
1DC
330
1F
100
AcDbEntity
  8
0
  6
Continuous
 62
     7
370
    30
100
AcDbLine
 10
7.8111382873
 20
3.4290207376
 30
0.0
 11
7.8111382873
 21
3.3790207373
 31
0.0
  0
LINE
  5
1DD
330
1F
100
AcDbEntity
  8
0
  6
Continuous
 62
     7
370
    30
100
AcDbLine
 10
7.4111383215
 20
3.6103718614
 30
0.0
 11
7.4111383215
 21
4.4515329142
 31
0.0
  0
ARC
  5
1DE
330
1F
100
AcDbEntity
  8
0
  6
Continuous
 62
     7
370
    30
100
AcDbCircle
 10
7.3361382488
 20
4.4515329028
 30
0.0
 40
0.0749999999999993
100
AcDbArc
 50
0.0
 51
83.3002348222
  0
ARC
  5
1DF
330
1F
100
AcDbEntity
  8
0
  6
Continuous
 62
     7
370
    30
100
AcDbCircle
 10
7.3501382488
 20
4.5707134381
 30
0.0
 40
0.0450000000000008
100
AcDbArc
 50
180.0
 51
263.3002348222
  0
ARC
  5
1E0
330
1F
100
AcDbEntity
  8
0
  6
Continuous
 62
     7
370
    30
100
AcDbCircle
 10
7.4361382488
 20
3.5040207373
 30
0.0
 40
0.0592499999999996
100
AcDbArc
 50
90.0
 51
346.9332707857
  0
ARC
  5
1E1
330
1F
100
AcDbEntity
  8
0
  6
Continuous
 62
     7
370
    30
100
AcDbCircle
 10
7.4361382488
 20
3.5040207373
 30
0.0
 40
0.109249999999999
100
AcDbArc
 50
338.13385487
 51
346.9332707857
  0
LINE
  5
1E2
330
1F
100
AcDbEntity
  8
0
  6
Continuous
 62
     7
370
    30
100
AcDbLine
 10
7.5607298467
 20
3.4290207376
 30
0.0
 11
7.8111382873
 21
3.4290207376
 31
0.0
  0
ARC
  5
1E3
330
1F
100
AcDbEntity
  8
0
  6
Continuous
 62
     7
370
    30
100
AcDbCircle
 10
7.4361382488
 20
3.5040207373
 30
0.0
 40
0.1092500000000006
100
AcDbArc
 50
103.2283724921
 51
201.86614513
  0
ARC
  5
1E4
330
1F
100
AcDbEntity
  8
0
  6
Continuous
 62
     7
370
    30
100
AcDbCircle
 10
7.5571382488
 20
4.6460207373
 30
0.0
 40
0.0100000000000007
100
AcDbArc
 50
0.0
 51
90.0
  0
ARC
  5
1E5
330
1F
100
AcDbEntity
  8
0
  6
Continuous
 62
     7
370
    30
100
AcDbCircle
 10
7.5361382488
 20
4.4515329028
 30
0.0
 40
0.0749999999999993
100
AcDbArc
 50
96.6997651778
 51
180.0
  0
LINE
  5
1E6
330
1F
100
AcDbEntity
  8
0
  6
Continuous
 62
     7
370
    30
100
AcDbLine
 10
7.4611383172
 20
4.4515329142
 30
0.0
 11
7.4611383172
 21
3.5632707355
 31
0.0
  0
ARC
  5
1E7
330
1F
100
AcDbEntity
  8
0
  6
Continuous
 62
     7
370
    30
100
AcDbCircle
 10
7.5182067986
 20
3.4849730174
 30
0.0
 40
0.0250000000000003
100
AcDbArc
 50
346.9332707857
 51
166.9332707857
  0
LINE
  5
1E8
330
1F
100
AcDbEntity
  8
0
  6
Continuous
 62
     7
370
    30
100
AcDbLine
 10
7.0611382047
 20
3.4290207376
 30
0.0
 11
7.3115466453
 21
3.4290207376
 31
0.0
  0
LINE
  5
1E9
330
1F
100
AcDbEntity
  8
0
  6
Continuous
 62
     7
370
    30
100
AcDbLine
 10
7.3151381772
 20
4.656020772
 30
0.0
 11
7.3215742762
 21
4.656020772
 31
0.0
  0
LINE
  5
1EA
330
1F
100
AcDbEntity
  8
0
  6
Continuous
 62
     7
370
    30
100
AcDbLine
 10
7.3463219369
 20
4.566020765
 30
0.0
 11
7.4111383215
 21
4.566020765
 31
0.0
  0
LINE
  5
1EB
330
1F
100
AcDbEntity
  8
0
  6
Continuous
 62
     7
370
    30
100
AcDbLine
 10
7.5259545551
 20
4.566020765
 30
0.0
 11
7.5171382303
 21
4.6160206874
 31
0.0
  0
LINE
  5
1EC
330
1F
100
AcDbEntity
  8
0
  6
Continuous
 62
     7
370
    30
100
AcDbLine
 10
7.5171382303
 20
4.6160206874
 30
0.0
 11
7.5507022159
 21
4.656020772
 31
0.0
  0
LINE
  5
1ED
330
1F
100
AcDbEntity
  8
0
  6
Continuous
 62
     7
370
    30
100
AcDbLine
 10
7.305138266
 20
4.5707134575
 30
0.0
 11
7.305138266
 21
4.6460207142
 31
0.0
  0
LINE
  5
1EE
330
1F
100
AcDbEntity
  8
0
  6
Continuous
 62
     7
370
    30
100
AcDbLine
 10
7.3215742762
 20
4.656020772
 30
0.0
 11
7.3551382618
 21
4.6160206874
 31
0.0
  0
LINE
  5
1EF
330
1F
100
AcDbEntity
  8
0
  6
Continuous
 62
     7
370
    30
100
AcDbLine
 10
7.3551382618
 20
4.6160206874
 30
0.0
 11
7.3463219369
 21
4.566020765
 31
0.0
  0
LINE
  5
1F0
330
1F
100
AcDbEntity
  8
0
  6
Continuous
 62
     7
370
    30
100
AcDbLine
 10
7.4111383215
 20
4.566020765
 30
0.0
 11
7.4111383215
 21
5.1910207116
 31
0.0
  0
LINE
  5
1F1
330
1F
100
AcDbEntity
  8
0
  6
Continuous
 62
     7
370
    30
100
AcDbLine
 10
7.4611383172
 20
4.566020765
 30
0.0
 11
7.5259545551
 21
4.566020765
 31
0.0
  0
LINE
  5
1F2
330
1F
100
AcDbEntity
  8
0
  6
Continuous
 62
     7
370
    30
100
AcDbLine
 10
7.5507022159
 20
4.656020772
 30
0.0
 11
7.5571383149
 21
4.656020772
 31
0.0
  0
LINE
  5
1F3
330
1F
100
AcDbEntity
  8
0
  6
Continuous
 62
     7
370
    30
100
AcDbLine
 10
7.4111383215
 20
5.1910207116
 30
0.0
 11
7.4611383172
 21
5.1910207116
 31
0.0
  0
ARC
  5
1F4
330
1F
100
AcDbEntity
  8
0
  6
Continuous
 62
     7
370
    30
100
AcDbCircle
 10
7.3151382488
 20
4.6460207373
 30
0.0
 40
0.0100000000000007
100
AcDbArc
 50
90.0
 51
180.0
  0
LINE
  5
1F5
330
1F
100
AcDbEntity
  8
0
  6
Continuous
 62
     7
370
    30
100
AcDbLine
 10
7.0611382047
 20
3.3790207373
 30
0.0
 11
7.0611382047
 21
3.4290207376
 31
0.0
  0
LINE
  5
1F6
330
1F
100
AcDbEntity
  8
0
  6
Continuous
 62
     7
370
    30
100
AcDbLine
 10
7.4611383172
 20
5.1910207116
 30
0.0
 11
7.4611383172
 21
4.566020765
 31
0.0
  0
LINE
  5
1F7
330
1F
100
AcDbEntity
  8
0
  6
Continuous
 62
     7
370
    30
100
AcDbLine
 10
4.0607298524
 20
3.4290207376
 30
0.0
 11
4.311138293
 21
3.4290207376
 31
0.0
  0
LINE
  5
1F8
330
1F
100
AcDbEntity
  8
0
  6
Continuous
 62
     7
370
    30
100
AcDbLine
 10
4.311138293
 20
3.4290207376
 30
0.0
 11
4.311138293
 21
3.3790207373
 31
0.0
  0
LINE
  5
1F9
330
1F
100
AcDbEntity
  8
0
  6
Continuous
 62
     7
370
    30
100
AcDbLine
 10
3.5611382104
 20
3.3790207373
 30
0.0
 11
4.311138293
 21
3.3790207373
 31
0.0
  0
ARC
  5
1FA
330
1F
100
AcDbEntity
  8
0
  6
Continuous
 62
     7
370
    30
100
AcDbCircle
 10
3.9361382488
 20
3.5040207373
 30
0.0
 40
0.1092500000000002
100
AcDbArc
 50
338.13385487
 51
346.9332707857
  0
ARC
  5
1FB
330
1F
100
AcDbEntity
  8
0
  6
Continuous
 62
     7
370
    30
100
AcDbCircle
 10
3.8361382488
 20
4.4515329028
 30
0.0
 40
0.0750000000000002
100
AcDbArc
 50
0.0
 51
83.3002348222
  0
ARC
  5
1FC
330
1F
100
AcDbEntity
  8
0
  6
Continuous
 62
     7
370
    30
100
AcDbCircle
 10
4.0361382488
 20
4.4515329028
 30
0.0
 40
0.0750000000000001
100
AcDbArc
 50
96.6997651778
 51
180.0
  0
ARC
  5
1FD
330
1F
100
AcDbEntity
  8
0
  6
Continuous
 62
     7
370
    30
100
AcDbCircle
 10
3.8151382488
 20
4.6460207373
 30
0.0
 40
0.0100000000000002
100
AcDbArc
 50
90.0
 51
180.0
  0
ARC
  5
1FE
330
1F
100
AcDbEntity
  8
0
  6
Continuous
 62
     7
370
    30
100
AcDbCircle
 10
4.0182067986
 20
3.4849730174
 30
0.0
 40
0.0250000000000003
100
AcDbArc
 50
346.9332707857
 51
166.9332707857
  0
LINE
  5
1FF
330
1F
100
AcDbEntity
  8
0
  6
Continuous
 62
     7
370
    30
100
AcDbLine
 10
3.5611382104
 20
3.4290207376
 30
0.0
 11
3.811546651
 21
3.4290207376
 31
0.0
  0
LINE
  5
200
330
1F
100
AcDbEntity
  8
0
  6
Continuous
 62
     7
370
    30
100
AcDbLine
 10
3.5611382104
 20
3.3790207373
 30
0.0
 11
3.5611382104
 21
3.4290207376
 31
0.0
  0
ARC
  5
201
330
1F
100
AcDbEntity
  8
0
  6
Continuous
 62
     7
370
    30
100
AcDbCircle
 10
3.8501382488
 20
4.5707134381
 30
0.0
 40
0.0450000000000004
100
AcDbArc
 50
180.0
 51
263.3002348222
  0
LINE
  5
202
330
1F
100
AcDbEntity
  8
0
  6
Continuous
 62
     7
370
    30
100
AcDbLine
 10
3.8051382717
 20
4.5707134575
 30
0.0
 11
3.8051382717
 21
4.6460207142
 31
0.0
  0
LINE
  5
203
330
1F
100
AcDbEntity
  8
0
  6
Continuous
 62
     7
370
    30
100
AcDbLine
 10
3.9611381762
 20
4.4515329142
 30
0.0
 11
3.9611381762
 21
3.5632707355
 31
0.0
  0
LINE
  5
204
330
1F
100
AcDbEntity
  8
0
  6
Continuous
 62
     7
370
    30
100
AcDbLine
 10
3.9611381762
 20
5.1910207116
 30
0.0
 11
3.9611381762
 21
4.566020765
 31
0.0
  0
LINE
  5
205
330
1F
100
AcDbEntity
  8
0
  6
Continuous
 62
     7
370
    30
100
AcDbLine
 10
3.9111381805
 20
3.6103718614
 30
0.0
 11
3.9111381805
 21
4.4515329142
 31
0.0
  0
LINE
  5
206
330
1F
100
AcDbEntity
  8
0
  6
Continuous
 62
     7
370
    30
100
AcDbLine
 10
3.8463219426
 20
4.566020765
 30
0.0
 11
3.9111381805
 21
4.566020765
 31
0.0
  0
ARC
  5
207
330
1F
100
AcDbEntity
  8
0
  6
Continuous
 62
     7
370
    30
100
AcDbCircle
 10
3.8115466661
 20
3.4540207373
 30
0.0
 40
0.0250000000000002
100
AcDbArc
 50
270.0
 51
21.86614513
  0
ARC
  5
208
330
1F
100
AcDbEntity
  8
0
  6
Continuous
 62
     7
370
    30
100
AcDbCircle
 10
3.9361382488
 20
3.5040207373
 30
0.0
 40
0.1092500000000005
100
AcDbArc
 50
103.2283724921
 51
201.86614513
  0
LINE
  5
209
330
1F
100
AcDbEntity
  8
0
  6
Continuous
 62
     7
370
    30
100
AcDbLine
 10
4.0507022215
 20
4.656020772
 30
0.0
 11
4.0571383205
 21
4.656020772
 31
0.0
  0
LINE
  5
20A
330
1F
100
AcDbEntity
  8
0
  6
Continuous
 62
     7
370
    30
100
AcDbLine
 10
3.8151381828
 20
4.656020772
 30
0.0
 11
3.8215742818
 21
4.656020772
 31
0.0
  0
LINE
  5
20B
330
1F
100
AcDbEntity
  8
0
  6
Continuous
 62
     7
370
    30
100
AcDbLine
 10
3.8215742818
 20
4.656020772
 30
0.0
 11
3.8551382674
 21
4.6160206874
 31
0.0
  0
LINE
  5
20C
330
1F
100
AcDbEntity
  8
0
  6
Continuous
 62
     7
370
    30
100
AcDbLine
 10
3.8551382674
 20
4.6160206874
 30
0.0
 11
3.8463219426
 21
4.566020765
 31
0.0
  0
ARC
  5
20D
330
1F
100
AcDbEntity
  8
0
  6
Continuous
 62
     7
370
    30
100
AcDbCircle
 10
3.9361382488
 20
3.5040207373
 30
0.0
 40
0.0592499999999997
100
AcDbArc
 50
90.0
 51
346.9332707857
  0
LINE
  5
20E
330
1F
100
AcDbEntity
  8
0
  6
Continuous
 62
     7
370
    30
100
AcDbLine
 10
3.9111381805
 20
4.566020765
 30
0.0
 11
3.9111381805
 21
5.1910207116
 31
0.0
  0
LINE
  5
20F
330
1F
100
AcDbEntity
  8
0
  6
Continuous
 62
     7
370
    30
100
AcDbLine
 10
3.9111381805
 20
5.1910207116
 30
0.0
 11
3.9611381762
 21
5.1910207116
 31
0.0
  0
LINE
  5
210
330
1F
100
AcDbEntity
  8
0
  6
Continuous
 62
     7
370
    30
100
AcDbLine
 10
3.9611381762
 20
4.566020765
 30
0.0
 11
4.0259545608
 21
4.566020765
 31
0.0
  0
LINE
  5
211
330
1F
100
AcDbEntity
  8
0
  6
Continuous
 62
     7
370
    30
100
AcDbLine
 10
4.0259545608
 20
4.566020765
 30
0.0
 11
4.0171382359
 21
4.6160206874
 31
0.0
  0
LINE
  5
212
330
1F
100
AcDbEntity
  8
0
  6
Continuous
 62
     7
370
    30
100
AcDbLine
 10
4.0171382359
 20
4.6160206874
 30
0.0
 11
4.0507022215
 21
4.656020772
 31
0.0
  0
ARC
  5
213
330
1F
100
AcDbEntity
  8
0
  6
Continuous
 62
     7
370
    30
100
AcDbCircle
 10
4.0571382488
 20
4.6460207373
 30
0.0
 40
0.0099999999999998
100
AcDbArc
 50
0.0
 51
90.0
  0
LINE
  5
214
330
1F
100
AcDbEntity
  8
0
  6
Continuous
 62
     7
370
    30
100
AcDbLine
 10
4.0671382317
 20
4.6460207142
 30
0.0
 11
4.0671382317
 21
4.5707134575
 31
0.0
  0
ARC
  5
215
330
1F
100
AcDbEntity
  8
0
  6
Continuous
 62
     7
370
    30
100
AcDbCircle
 10
4.0221382488
 20
4.5707134381
 30
0.0
 40
0.0449999999999999
100
AcDbArc
 50
276.6997651778
 51
0.0
  0
LINE
  5
216
330
1F
100
AcDbEntity
  8
0
  6
Continuous
 62
     7
370
    30
100
AcDbLine
 10
3.9611381762
 20
3.5632707355
 30
0.0
 11
3.9361382517
 21
3.5632707355
 31
0.0
  0
ARC
  5
217
330
1F
100
AcDbEntity
  8
0
  6
Continuous
 62
     7
370
    30
100
AcDbCircle
 10
4.0607298316
 20
3.4540207373
 30
0.0
 40
0.0249999999999999
100
AcDbArc
 50
158.13385487
 51
270.0
  0
LINE
  5
218
330
1F
100
AcDbEntity
  8
0
  6
Continuous
 62
     7
370
    30
100
AcDbLine
 10
5.3111382442
 20
3.3790207373
 30
0.0
 11
5.3111382442
 21
3.4290207376
 31
0.0
  0
LINE
  5
219
330
1F
100
AcDbEntity
  8
0
  6
Continuous
 62
     7
370
    30
100
AcDbLine
 10
5.3111382442
 20
3.4290207376
 30
0.0
 11
5.5615466665
 21
3.4290207376
 31
0.0
  0
ARC
  5
21A
330
1F
100
AcDbEntity
  8
0
  6
Continuous
 62
     7
370
    30
100
AcDbCircle
 10
5.5615466661
 20
3.4540207373
 30
0.0
 40
0.0250000000000004
100
AcDbArc
 50
270.0
 51
21.86614513
  0
ARC
  5
21B
330
1F
100
AcDbEntity
  8
0
  6
Continuous
 62
     7
370
    30
100
AcDbCircle
 10
5.6861382488
 20
3.5040207373
 30
0.0
 40
0.1092500000000005
100
AcDbArc
 50
103.2283724921
 51
201.86614513
  0
ARC
  5
21C
330
1F
100
AcDbEntity
  8
0
  6
Continuous
 62
     7
370
    30
100
AcDbCircle
 10
5.6001382488
 20
4.5707134381
 30
0.0
 40
0.0450000000000004
100
AcDbArc
 50
180.0
 51
263.3002348222
  0
LINE
  5
21D
330
1F
100
AcDbEntity
  8
0
  6
Continuous
 62
     7
370
    30
100
AcDbLine
 10
5.5551382505
 20
4.5707134575
 30
0.0
 11
5.5551382505
 21
4.6460207142
 31
0.0
  0
ARC
  5
21E
330
1F
100
AcDbEntity
  8
0
  6
Continuous
 62
     7
370
    30
100
AcDbCircle
 10
5.5651382488
 20
4.6460207373
 30
0.0
 40
0.0099999999999998
100
AcDbArc
 50
90.0
 51
180.0
  0
LINE
  5
21F
330
1F
100
AcDbEntity
  8
0
  6
Continuous
 62
     7
370
    30
100
AcDbLine
 10
5.5651382533
 20
4.656020772
 30
0.0
 11
5.5715742606
 21
4.656020772
 31
0.0
  0
LINE
  5
220
330
1F
100
AcDbEntity
  8
0
  6
Continuous
 62
     7
370
    30
100
AcDbLine
 10
5.3111382442
 20
3.3790207373
 30
0.0
 11
6.0611382535
 21
3.3790207373
 31
0.0
  0
LINE
  5
221
330
1F
100
AcDbEntity
  8
0
  6
Continuous
 62
     7
370
    30
100
AcDbLine
 10
5.6611382487
 20
3.6103718614
 30
0.0
 11
5.6611382487
 21
4.4515329142
 31
0.0
  0
ARC
  5
222
330
1F
100
AcDbEntity
  8
0
  6
Continuous
 62
     7
370
    30
100
AcDbCircle
 10
5.5861382488
 20
4.4515329028
 30
0.0
 40
0.0750000000000002
100
AcDbArc
 50
0.0
 51
83.3002348222
  0
LINE
  5
223
330
1F
100
AcDbEntity
  8
0
  6
Continuous
 62
     7
370
    30
100
AcDbLine
 10
5.5715742606
 20
4.656020772
 30
0.0
 11
5.6051382462
 21
4.6160206874
 31
0.0
  0
LINE
  5
224
330
1F
100
AcDbEntity
  8
0
  6
Continuous
 62
     7
370
    30
100
AcDbLine
 10
5.6051382462
 20
4.6160206874
 30
0.0
 11
5.5963219031
 21
4.566020765
 31
0.0
  0
LINE
  5
225
330
1F
100
AcDbEntity
  8
0
  6
Continuous
 62
     7
370
    30
100
AcDbLine
 10
5.6611382487
 20
4.566020765
 30
0.0
 11
5.6611382487
 21
5.1910207116
 31
0.0
  0
LINE
  5
226
330
1F
100
AcDbEntity
  8
0
  6
Continuous
 62
     7
370
    30
100
AcDbLine
 10
5.711138249
 20
5.1910207116
 30
0.0
 11
5.711138249
 21
4.566020765
 31
0.0
  0
LINE
  5
227
330
1F
100
AcDbEntity
  8
0
  6
Continuous
 62
     7
370
    30
100
AcDbLine
 10
5.711138249
 20
4.566020765
 30
0.0
 11
5.7759545946
 21
4.566020765
 31
0.0
  0
LINE
  5
228
330
1F
100
AcDbEntity
  8
0
  6
Continuous
 62
     7
370
    30
100
AcDbLine
 10
5.7759545946
 20
4.566020765
 30
0.0
 11
5.7671382515
 21
4.6160206874
 31
0.0
  0
LINE
  5
229
330
1F
100
AcDbEntity
  8
0
  6
Continuous
 62
     7
370
    30
100
AcDbLine
 10
5.7671382515
 20
4.6160206874
 30
0.0
 11
5.8007022371
 21
4.656020772
 31
0.0
  0
LINE
  5
22A
330
1F
100
AcDbEntity
  8
0
  6
Continuous
 62
     7
370
    30
100
AcDbLine
 10
5.8007022371
 20
4.656020772
 30
0.0
 11
5.8071382444
 21
4.656020772
 31
0.0
  0
ARC
  5
22B
330
1F
100
AcDbEntity
  8
0
  6
Continuous
 62
     7
370
    30
100
AcDbCircle
 10
5.8071382488
 20
4.6460207373
 30
0.0
 40
0.0099999999999998
100
AcDbArc
 50
0.0
 51
90.0
  0
LINE
  5
22C
330
1F
100
AcDbEntity
  8
0
  6
Continuous
 62
     7
370
    30
100
AcDbLine
 10
5.8171382472
 20
4.6460207142
 30
0.0
 11
5.8171382472
 21
4.5707134575
 31
0.0
  0
ARC
  5
22D
330
1F
100
AcDbEntity
  8
0
  6
Continuous
 62
     7
370
    30
100
AcDbCircle
 10
5.7721382488
 20
4.5707134381
 30
0.0
 40
0.0450000000000004
100
AcDbArc
 50
276.6997651778
 51
0.0
  0
ARC
  5
22E
330
1F
100
AcDbEntity
  8
0
  6
Continuous
 62
     7
370
    30
100
AcDbCircle
 10
5.7861382488
 20
4.4515329028
 30
0.0
 40
0.0750000000000002
100
AcDbArc
 50
96.6997651778
 51
180.0
  0
LINE
  5
22F
330
1F
100
AcDbEntity
  8
0
  6
Continuous
 62
     7
370
    30
100
AcDbLine
 10
5.711138249
 20
4.4515329142
 30
0.0
 11
5.711138249
 21
3.5632707355
 31
0.0
  0
LINE
  5
230
330
1F
100
AcDbEntity
  8
0
  6
Continuous
 62
     7
370
    30
100
AcDbLine
 10
5.711138249
 20
3.5632707355
 30
0.0
 11
5.6861382488
 21
3.5632707355
 31
0.0
  0
ARC
  5
231
330
1F
100
AcDbEntity
  8
0
  6
Continuous
 62
     7
370
    30
100
AcDbCircle
 10
5.6861382488
 20
3.5040207373
 30
0.0
 40
0.0592500000000001
100
AcDbArc
 50
90.0
 51
346.9332707857
  0
ARC
  5
232
330
1F
100
AcDbEntity
  8
0
  6
Continuous
 62
     7
370
    30
100
AcDbCircle
 10
5.7682067986
 20
3.4849730174
 30
0.0
 40
0.0250000000000012
100
AcDbArc
 50
346.9332707857
 51
166.9332707857
  0
ARC
  5
233
330
1F
100
AcDbEntity
  8
0
  6
Continuous
 62
     7
370
    30
100
AcDbCircle
 10
5.6861382488
 20
3.5040207373
 30
0.0
 40
0.1092500000000007
100
AcDbArc
 50
338.13385487
 51
346.9332707857
  0
ARC
  5
234
330
1F
100
AcDbEntity
  8
0
  6
Continuous
 62
     7
370
    30
100
AcDbCircle
 10
5.8107298316
 20
3.4540207373
 30
0.0
 40
0.0249999999999999
100
AcDbArc
 50
158.13385487
 51
270.0
  0
LINE
  5
235
330
1F
100
AcDbEntity
  8
0
  6
Continuous
 62
     7
370
    30
100
AcDbLine
 10
5.8107298312
 20
3.4290207376
 30
0.0
 11
6.0611382535
 21
3.4290207376
 31
0.0
  0
LINE
  5
236
330
1F
100
AcDbEntity
  8
0
  6
Continuous
 62
     7
370
    30
100
AcDbLine
 10
6.0611382535
 20
3.4290207376
 30
0.0
 11
6.0611382535
 21
3.3790207373
 31
0.0
  0
LINE
  5
237
330
1F
100
AcDbEntity
  8
0
  6
Continuous
 62
     7
370
    30
100
AcDbLine
 10
5.5963219031
 20
4.566020765
 30
0.0
 11
5.6611382487
 21
4.566020765
 31
0.0
  0
LINE
  5
238
330
1F
100
AcDbEntity
  8
0
  6
Continuous
 62
     7
370
    30
100
AcDbLine
 10
5.6611382487
 20
5.1910207116
 30
0.0
 11
5.711138249
 21
5.1910207116
 31
0.0
  0
ARC
  5
239
330
1F
100
AcDbEntity
  8
0
  6
Continuous
 62
     7
370
    30
100
AcDbCircle
 10
4.9936382488
 20
4.4410207373
 30
0.0
 40
0.0250000000000012
100
AcDbArc
 50
90.0
 51
285.0
  0
LINE
  5
23A
330
1F
100
AcDbEntity
  8
0
  6
Continuous
 62
     7
370
    30
100
AcDbLine
 10
5.0261382466
 20
4.4660207735
 30
0.0
 11
4.993638242
 21
4.4660207735
 31
0.0
  0
ARC
  5
23B
330
1F
100
AcDbEntity
  8
0
  6
Continuous
 62
     7
370
    30
100
AcDbCircle
 10
5.0261382488
 20
4.5470207373
 30
0.0
 40
0.0810000000000013
100
AcDbArc
 50
270.0
 51
64.3991730166
  0
ARC
  5
23C
330
1F
100
AcDbEntity
  8
0
  6
Continuous
 62
     7
370
    30
100
AcDbCircle
 10
4.5961382488
 20
4.5470207373
 30
0.0
 40
0.0810000000000004
100
AcDbArc
 50
115.6008269834
 51
270.0
  0
LINE
  5
23D
330
1F
100
AcDbEntity
  8
0
  6
Continuous
 62
     7
370
    30
100
AcDbLine
 10
4.5767692377
 20
4.4290370741
 30
0.0
 11
4.6221677666
 21
4.416872608
 31
0.0
  0
LINE
  5
23E
330
1F
100
AcDbEntity
  8
0
  6
Continuous
 62
     7
370
    30
100
AcDbLine
 10
4.5767692377
 20
4.4290370741
 30
0.0
 11
4.5798750885
 21
4.4406282269
 31
0.0
  0
LINE
  5
23F
330
1F
100
AcDbEntity
  8
0
  6
Continuous
 62
     7
370
    30
100
AcDbLine
 10
4.5798750885
 20
4.4406282269
 30
0.0
 11
4.6252736174
 21
4.4284636874
 31
0.0
  0
ARC
  5
240
330
1F
100
AcDbEntity
  8
0
  6
Continuous
 62
     7
370
    30
100
AcDbCircle
 10
4.6286382488
 20
4.4410207373
 30
0.0
 40
0.0129999999999999
100
AcDbArc
 50
255.0
 51
90.0
  0
LINE
  5
241
330
1F
100
AcDbEntity
  8
0
  6
Continuous
 62
     7
370
    30
100
AcDbLine
 10
4.6286382585
 20
4.4540207188
 30
0.0
 11
4.596138254
 21
4.4540207188
 31
0.0
  0
ARC
  5
242
330
1F
100
AcDbEntity
  8
0
  6
Continuous
 62
     7
370
    30
100
AcDbCircle
 10
4.5961382488
 20
4.5470207373
 30
0.0
 40
0.0930000000000004
100
AcDbArc
 50
112.1074099445
 51
270.0
  0
ARC
  5
243
330
1F
100
AcDbEntity
  8
0
  6
Continuous
 62
     7
370
    30
100
AcDbCircle
 10
5.0261382488
 20
4.5470207373
 30
0.0
 40
0.0930000000000026
100
AcDbArc
 50
270.0
 51
67.8925900555
  0
LINE
  5
244
330
1F
100
AcDbEntity
  8
0
  6
Continuous
 62
     7
370
    30
100
AcDbLine
 10
5.0261382466
 20
4.4540207188
 30
0.0
 11
4.993638242
 21
4.4540207188
 31
0.0
  0
ARC
  5
245
330
1F
100
AcDbEntity
  8
0
  6
Continuous
 62
     7
370
    30
100
AcDbCircle
 10
4.9936382488
 20
4.4410207373
 30
0.0
 40
0.0130000000000026
100
AcDbArc
 50
90.0
 51
285.0
  0
LINE
  5
246
330
1F
100
AcDbEntity
  8
0
  6
Continuous
 62
     7
370
    30
100
AcDbLine
 10
4.9970028831
 20
4.4284636874
 30
0.0
 11
5.042401412
 21
4.4406282269
 31
0.0
  0
LINE
  5
247
330
1F
100
AcDbEntity
  8
0
  6
Continuous
 62
     7
370
    30
100
AcDbLine
 10
5.042401412
 20
4.4406282269
 30
0.0
 11
5.0455072628
 21
4.4290370741
 31
0.0
  0
LINE
  5
248
330
1F
100
AcDbEntity
  8
0
  6
Continuous
 62
     7
370
    30
100
AcDbLine
 10
5.0001087339
 20
4.416872608
 30
0.0
 11
5.0455072628
 21
4.4290370741
 31
0.0
  0
LINE
  5
249
330
1F
100
AcDbEntity
  8
0
  6
Continuous
 62
     7
370
    30
100
AcDbLine
 10
4.6286382585
 20
4.4660207735
 30
0.0
 11
4.596138254
 21
4.4660207735
 31
0.0
  0
ARC
  5
24A
330
1F
100
AcDbEntity
  8
0
  6
Continuous
 62
     7
370
    30
100
AcDbCircle
 10
4.6286382488
 20
4.4410207373
 30
0.0
 40
0.0250000000000019
100
AcDbArc
 50
255.0
 51
90.0
  0
ARC
  5
24B
330
1F
100
AcDbEntity
  8
0
  6
Continuous
 62
     7
370
    30
100
AcDbCircle
 10
6.7436382488
 20
4.4410207373
 30
0.0
 40
0.0250000000000004
100
AcDbArc
 50
90.0
 51
285.0
  0
LINE
  5
24C
330
1F
100
AcDbEntity
  8
0
  6
Continuous
 62
     7
370
    30
100
AcDbLine
 10
6.7761382437
 20
4.4660207735
 30
0.0
 11
6.7436382392
 21
4.4660207735
 31
0.0
  0
ARC
  5
24D
330
1F
100
AcDbEntity
  8
0
  6
Continuous
 62
     7
370
    30
100
AcDbCircle
 10
6.7761382488
 20
4.5470207373
 30
0.0
 40
0.0810000000000013
100
AcDbArc
 50
270.0
 51
64.3991730166
  0
ARC
  5
24E
330
1F
100
AcDbEntity
  8
0
  6
Continuous
 62
     7
370
    30
100
AcDbCircle
 10
6.3461382488
 20
4.5470207373
 30
0.0
 40
0.0810000000000004
100
AcDbArc
 50
115.6008269834
 51
270.0
  0
LINE
  5
24F
330
1F
100
AcDbEntity
  8
0
  6
Continuous
 62
     7
370
    30
100
AcDbLine
 10
6.3786382557
 20
4.4660207735
 30
0.0
 11
6.3461382511
 21
4.4660207735
 31
0.0
  0
ARC
  5
250
330
1F
100
AcDbEntity
  8
0
  6
Continuous
 62
     7
370
    30
100
AcDbCircle
 10
6.3786382488
 20
4.4410207373
 30
0.0
 40
0.0250000000000016
100
AcDbArc
 50
255.0
 51
90.0
  0
LINE
  5
251
330
1F
100
AcDbEntity
  8
0
  6
Continuous
 62
     7
370
    30
100
AcDbLine
 10
6.3267692349
 20
4.4290370741
 30
0.0
 11
6.3721677638
 21
4.416872608
 31
0.0
  0
LINE
  5
252
330
1F
100
AcDbEntity
  8
0
  6
Continuous
 62
     7
370
    30
100
AcDbLine
 10
6.3267692349
 20
4.4290370741
 30
0.0
 11
6.3298750857
 21
4.4406282269
 31
0.0
  0
LINE
  5
253
330
1F
100
AcDbEntity
  8
0
  6
Continuous
 62
     7
370
    30
100
AcDbLine
 10
6.3298750857
 20
4.4406282269
 30
0.0
 11
6.3752736146
 21
4.4284636874
 31
0.0
  0
ARC
  5
254
330
1F
100
AcDbEntity
  8
0
  6
Continuous
 62
     7
370
    30
100
AcDbCircle
 10
6.3786382488
 20
4.4410207373
 30
0.0
 40
0.0129999999999997
100
AcDbArc
 50
255.0
 51
90.0
  0
LINE
  5
255
330
1F
100
AcDbEntity
  8
0
  6
Continuous
 62
     7
370
    30
100
AcDbLine
 10
6.3786382557
 20
4.4540207188
 30
0.0
 11
6.3461382511
 21
4.4540207188
 31
0.0
  0
ARC
  5
256
330
1F
100
AcDbEntity
  8
0
  6
Continuous
 62
     7
370
    30
100
AcDbCircle
 10
6.3461382488
 20
4.5470207373
 30
0.0
 40
0.0930000000000009
100
AcDbArc
 50
112.1074099445
 51
270.0
  0
ARC
  5
257
330
1F
100
AcDbEntity
  8
0
  6
Continuous
 62
     7
370
    30
100
AcDbCircle
 10
6.7761382488
 20
4.5470207373
 30
0.0
 40
0.0930000000000026
100
AcDbArc
 50
270.0
 51
67.8925900555
  0
LINE
  5
258
330
1F
100
AcDbEntity
  8
0
  6
Continuous
 62
     7
370
    30
100
AcDbLine
 10
6.7761382437
 20
4.4540207188
 30
0.0
 11
6.7436382392
 21
4.4540207188
 31
0.0
  0
ARC
  5
259
330
1F
100
AcDbEntity
  8
0
  6
Continuous
 62
     7
370
    30
100
AcDbCircle
 10
6.7436382488
 20
4.4410207373
 30
0.0
 40
0.0130000000000017
100
AcDbArc
 50
90.0
 51
285.0
  0
LINE
  5
25A
330
1F
100
AcDbEntity
  8
0
  6
Continuous
 62
     7
370
    30
100
AcDbLine
 10
6.7470028803
 20
4.4284636874
 30
0.0
 11
6.7924014092
 21
4.4406282269
 31
0.0
  0
LINE
  5
25B
330
1F
100
AcDbEntity
  8
0
  6
Continuous
 62
     7
370
    30
100
AcDbLine
 10
6.7924014092
 20
4.4406282269
 30
0.0
 11
6.79550726
 21
4.4290370741
 31
0.0
  0
LINE
  5
25C
330
1F
100
AcDbEntity
  8
0
  6
Continuous
 62
     7
370
    30
100
AcDbLine
 10
6.7501087311
 20
4.416872608
 30
0.0
 11
6.79550726
 21
4.4290370741
 31
0.0
  0
ARC
  5
25D
330
1F
100
AcDbEntity
  8
0
  6
Continuous
 62
     7
370
    30
100
AcDbCircle
 10
3.2436382488
 20
4.4410207373
 30
0.0
 40
0.0250000000000004
100
AcDbArc
 50
90.0
 51
285.0
  0
LINE
  5
25E
330
1F
100
AcDbEntity
  8
0
  6
Continuous
 62
     7
370
    30
100
AcDbLine
 10
3.2761382494
 20
4.4660207735
 30
0.0
 11
3.2436383181
 21
4.4660207735
 31
0.0
  0
ARC
  5
25F
330
1F
100
AcDbEntity
  8
0
  6
Continuous
 62
     7
370
    30
100
AcDbCircle
 10
3.2761382488
 20
4.5470207373
 30
0.0
 40
0.0810000000000004
100
AcDbArc
 50
270.0
 51
64.3991730166
  0
ARC
  5
260
330
1F
100
AcDbEntity
  8
0
  6
Continuous
 62
     7
370
    30
100
AcDbCircle
 10
2.8461382488
 20
4.5470207373
 30
0.0
 40
0.0810000000000004
100
AcDbArc
 50
115.6008269834
 51
270.0
  0
LINE
  5
261
330
1F
100
AcDbEntity
  8
0
  6
Continuous
 62
     7
370
    30
100
AcDbLine
 10
2.8786383347
 20
4.4660207735
 30
0.0
 11
2.8461382568
 21
4.4660207735
 31
0.0
  0
ARC
  5
262
330
1F
100
AcDbEntity
  8
0
  6
Continuous
 62
     7
370
    30
100
AcDbCircle
 10
2.8786382488
 20
4.4410207373
 30
0.0
 40
0.0250000000000021
100
AcDbArc
 50
255.0
 51
90.0
  0
LINE
  5
263
330
1F
100
AcDbEntity
  8
0
  6
Continuous
 62
     7
370
    30
100
AcDbLine
 10
2.8267693872
 20
4.4290370741
 30
0.0
 11
2.8721677694
 21
4.416872608
 31
0.0
  0
LINE
  5
264
330
1F
100
AcDbEntity
  8
0
  6
Continuous
 62
     7
370
    30
100
AcDbLine
 10
2.8267693872
 20
4.4290370741
 30
0.0
 11
2.8298751646
 21
4.4406282269
 31
0.0
  0
LINE
  5
265
330
1F
100
AcDbEntity
  8
0
  6
Continuous
 62
     7
370
    30
100
AcDbLine
 10
2.8298751646
 20
4.4406282269
 30
0.0
 11
2.8752735469
 21
4.4284636874
 31
0.0
  0
ARC
  5
266
330
1F
100
AcDbEntity
  8
0
  6
Continuous
 62
     7
370
    30
100
AcDbCircle
 10
2.8786382488
 20
4.4410207373
 30
0.0
 40
0.0130000000000002
100
AcDbArc
 50
255.0
 51
90.0
  0
LINE
  5
267
330
1F
100
AcDbEntity
  8
0
  6
Continuous
 62
     7
370
    30
100
AcDbLine
 10
2.8786383347
 20
4.4540207188
 30
0.0
 11
2.8461382568
 21
4.4540207188
 31
0.0
  0
ARC
  5
268
330
1F
100
AcDbEntity
  8
0
  6
Continuous
 62
     7
370
    30
100
AcDbCircle
 10
2.8461382488
 20
4.5470207373
 30
0.0
 40
0.0930000000000009
100
AcDbArc
 50
112.1074099445
 51
270.0
  0
ARC
  5
269
330
1F
100
AcDbEntity
  8
0
  6
Continuous
 62
     7
370
    30
100
AcDbCircle
 10
3.2761382488
 20
4.5470207373
 30
0.0
 40
0.0930000000000017
100
AcDbArc
 50
270.0
 51
67.8925900555
  0
LINE
  5
26A
330
1F
100
AcDbEntity
  8
0
  6
Continuous
 62
     7
370
    30
100
AcDbLine
 10
3.2761382494
 20
4.4540207188
 30
0.0
 11
3.2436383181
 21
4.4540207188
 31
0.0
  0
ARC
  5
26B
330
1F
100
AcDbEntity
  8
0
  6
Continuous
 62
     7
370
    30
100
AcDbCircle
 10
3.2436382488
 20
4.4410207373
 30
0.0
 40
0.0130000000000017
100
AcDbArc
 50
90.0
 51
285.0
  0
LINE
  5
26C
330
1F
100
AcDbEntity
  8
0
  6
Continuous
 62
     7
370
    30
100
AcDbLine
 10
3.2470029593
 20
4.4284636874
 30
0.0
 11
3.2924013415
 21
4.4406282269
 31
0.0
  0
LINE
  5
26D
330
1F
100
AcDbEntity
  8
0
  6
Continuous
 62
     7
370
    30
100
AcDbLine
 10
3.2924013415
 20
4.4406282269
 30
0.0
 11
3.2955072656
 21
4.4290370741
 31
0.0
  0
LINE
  5
26E
330
1F
100
AcDbEntity
  8
0
  6
Continuous
 62
     7
370
    30
100
AcDbLine
 10
3.2501087367
 20
4.416872608
 30
0.0
 11
3.2955072656
 21
4.4290370741
 31
0.0
  0
ARC
  5
26F
330
1F
100
AcDbEntity
  8
0
  6
Continuous
 62
     7
370
    30
100
AcDbCircle
 10
8.4936382488
 20
4.4410207373
 30
0.0
 40
0.0250000000000012
100
AcDbArc
 50
90.0
 51
285.0
  0
LINE
  5
270
330
1F
100
AcDbEntity
  8
0
  6
Continuous
 62
     7
370
    30
100
AcDbLine
 10
8.5261382409
 20
4.4660207735
 30
0.0
 11
8.493638163
 21
4.4660207735
 31
0.0
  0
ARC
  5
271
330
1F
100
AcDbEntity
  8
0
  6
Continuous
 62
     7
370
    30
100
AcDbCircle
 10
8.5261382488
 20
4.5470207373
 30
0.0
 40
0.0810000000000013
100
AcDbArc
 50
270.0
 51
64.3991730166
  0
ARC
  5
272
330
1F
100
AcDbEntity
  8
0
  6
Continuous
 62
     7
370
    30
100
AcDbCircle
 10
8.0961382488
 20
4.5470207373
 30
0.0
 40
0.0810000000000004
100
AcDbArc
 50
115.6008269834
 51
270.0
  0
ARC
  5
273
330
1F
100
AcDbEntity
  8
0
  6
Continuous
 62
     7
370
    30
100
AcDbCircle
 10
8.1286382488
 20
4.4410207373
 30
0.0
 40
0.0250000000000014
100
AcDbArc
 50
255.0
 51
90.0
  0
LINE
  5
274
330
1F
100
AcDbEntity
  8
0
  6
Continuous
 62
     7
370
    30
100
AcDbLine
 10
8.0767692321
 20
4.4290370741
 30
0.0
 11
8.122167761
 21
4.416872608
 31
0.0
  0
LINE
  5
275
330
1F
100
AcDbEntity
  8
0
  6
Continuous
 62
     7
370
    30
100
AcDbLine
 10
8.0767692321
 20
4.4290370741
 30
0.0
 11
8.0798751562
 21
4.4406282269
 31
0.0
  0
LINE
  5
276
330
1F
100
AcDbEntity
  8
0
  6
Continuous
 62
     7
370
    30
100
AcDbLine
 10
8.0798751562
 20
4.4406282269
 30
0.0
 11
8.1252735384
 21
4.4284636874
 31
0.0
  0
ARC
  5
277
330
1F
100
AcDbEntity
  8
0
  6
Continuous
 62
     7
370
    30
100
AcDbCircle
 10
8.1286382488
 20
4.4410207373
 30
0.0
 40
0.0130000000000006
100
AcDbArc
 50
255.0
 51
90.0
  0
LINE
  5
278
330
1F
100
AcDbEntity
  8
0
  6
Continuous
 62
     7
370
    30
100
AcDbLine
 10
8.1286381795
 20
4.4540207188
 30
0.0
 11
8.0961382483
 21
4.4540207188
 31
0.0
  0
ARC
  5
279
330
1F
100
AcDbEntity
  8
0
  6
Continuous
 62
     7
370
    30
100
AcDbCircle
 10
8.0961382488
 20
4.5470207373
 30
0.0
 40
0.0930000000000009
100
AcDbArc
 50
112.1074099445
 51
270.0
  0
ARC
  5
27A
330
1F
100
AcDbEntity
  8
0
  6
Continuous
 62
     7
370
    30
100
AcDbCircle
 10
8.5261382488
 20
4.5470207373
 30
0.0
 40
0.0930000000000017
100
AcDbArc
 50
270.0
 51
67.8925900555
  0
LINE
  5
27B
330
1F
100
AcDbEntity
  8
0
  6
Continuous
 62
     7
370
    30
100
AcDbLine
 10
8.5261382409
 20
4.4540207188
 30
0.0
 11
8.493638163
 21
4.4540207188
 31
0.0
  0
ARC
  5
27C
330
1F
100
AcDbEntity
  8
0
  6
Continuous
 62
     7
370
    30
100
AcDbCircle
 10
8.4936382488
 20
4.4410207373
 30
0.0
 40
0.0130000000000026
100
AcDbArc
 50
90.0
 51
285.0
  0
LINE
  5
27D
330
1F
100
AcDbEntity
  8
0
  6
Continuous
 62
     7
370
    30
100
AcDbLine
 10
8.4970029508
 20
4.4284636874
 30
0.0
 11
8.5424013331
 21
4.4406282269
 31
0.0
  0
LINE
  5
27E
330
1F
100
AcDbEntity
  8
0
  6
Continuous
 62
     7
370
    30
100
AcDbLine
 10
8.5424013331
 20
4.4406282269
 30
0.0
 11
8.5455071105
 21
4.4290370741
 31
0.0
  0
LINE
  5
27F
330
1F
100
AcDbEntity
  8
0
  6
Continuous
 62
     7
370
    30
100
AcDbLine
 10
8.5001087283
 20
4.416872608
 30
0.0
 11
8.5455071105
 21
4.4290370741
 31
0.0
  0
LINE
  5
280
330
1F
100
AcDbEntity
  8
0
  6
Continuous
 62
     7
370
    30
100
AcDbLine
 10
8.1286381795
 20
4.4660207735
 30
0.0
 11
8.0961382483
 21
4.4660207735
 31
0.0
  0
LINE
  5
281
330
1F
100
AcDbEntity
  8
0
  6
Continuous
 62
     7
370
    30
100
AcDbLine
 10
3.286410224
 20
4.4884751808
 30
0.0
 11
3.2925666329
 21
4.5053896854
 31
0.0
  0
ARC
  5
282
330
1F
100
AcDbEntity
  8
0
  6
Continuous
 62
     7
370
    30
100
AcDbCircle
 10
3.2191382488
 20
4.3538413246
 30
0.0
 40
0.0500000000000003
100
AcDbArc
 50
0.0
 51
60.1644397768
  0
LINE
  5
283
330
1F
100
AcDbEntity
  8
0
  6
Continuous
 62
     7
370
    30
100
AcDbLine
 10
3.2691382236
 20
4.2360207639
 30
0.0
 11
3.2691382236
 21
4.3538413561
 31
0.0
  0
ARC
  5
284
330
1F
100
AcDbEntity
  8
0
  6
Continuous
 62
     7
370
    30
100
AcDbCircle
 10
3.5191382488
 20
4.2360207373
 30
0.0
 40
0.2500000000000002
100
AcDbArc
 50
180.0
 51
243.2145316219
  0
ARC
  5
285
330
1F
100
AcDbEntity
  8
0
  6
Continuous
 62
     7
370
    30
100
AcDbCircle
 10
3.3780844406
 20
3.9566055924
 30
0.0
 40
0.0630000000000001
100
AcDbArc
 50
351.9770130931
 51
63.2145316219
  0
LINE
  5
286
330
1F
100
AcDbEntity
  8
0
  6
Continuous
 62
     7
370
    30
100
AcDbLine
 10
3.0691382407
 20
3.8090207299
 30
0.0
 11
3.0691382407
 21
3.67902073
 31
0.0
  0
LINE
  5
287
330
1F
100
AcDbEntity
  8
0
  6
Continuous
 62
     7
370
    30
100
AcDbLine
 10
3.0871381394
 20
3.8090207299
 30
0.0
 11
3.0871381394
 21
3.67902073
 31
0.0
  0
ARC
  5
288
330
1F
100
AcDbEntity
  8
0
  6
Continuous
 62
     7
370
    30
100
AcDbCircle
 10
3.1191382488
 20
3.6790207373
 30
0.0
 40
0.032
100
AcDbArc
 50
180.0
 51
278.8498830984
  0
ARC
  5
289
330
1F
100
AcDbEntity
  8
0
  6
Continuous
 62
     7
370
    30
100
AcDbCircle
 10
3.0691382488
 20
4.0001515518
 30
0.0
 40
0.3570000000000003
100
AcDbArc
 50
278.8498830984
 51
351.9770130931
  0
ARC
  5
28A
330
1F
100
AcDbEntity
  8
0
  6
Continuous
 62
     7
370
    30
100
AcDbCircle
 10
3.5191382488
 20
4.2360207373
 30
0.0
 40
0.2680000000000004
100
AcDbArc
 50
180.0
 51
243.2145316219
  0
LINE
  5
28B
330
1F
100
AcDbEntity
  8
0
  6
Continuous
 62
     7
370
    30
100
AcDbLine
 10
3.2511381782
 20
4.2360207639
 30
0.0
 11
3.2511381782
 21
4.3538413561
 31
0.0
  0
ARC
  5
28C
330
1F
100
AcDbEntity
  8
0
  6
Continuous
 62
     7
370
    30
100
AcDbCircle
 10
3.2191382488
 20
4.3538413246
 30
0.0
 40
0.0320000000000005
100
AcDbArc
 50
0.0
 51
60.1644397768
  0
ARC
  5
28D
330
1F
100
AcDbEntity
  8
0
  6
Continuous
 62
     7
370
    30
100
AcDbCircle
 10
3.2691382488
 20
4.4410207373
 30
0.0
 40
0.0685000000000004
100
AcDbArc
 50
70.0
 51
240.1644397768
  0
LINE
  5
28E
330
1F
100
AcDbEntity
  8
0
  6
Continuous
 62
     7
370
    30
100
AcDbLine
 10
3.0871381394
 20
3.8090207299
 30
0.0
 11
3.0691382407
 21
3.8090207299
 31
0.0
  0
ARC
  5
28F
330
1F
100
AcDbEntity
  8
0
  6
Continuous
 62
     7
370
    30
100
AcDbCircle
 10
3.0691382488
 20
4.0001515518
 30
0.0
 40
0.3750000000000001
100
AcDbArc
 50
278.8498830984
 51
351.9770130931
  0
ARC
  5
290
330
1F
100
AcDbEntity
  8
0
  6
Continuous
 62
     7
370
    30
100
AcDbCircle
 10
3.1191382488
 20
3.6790207373
 30
0.0
 40
0.0499999999999998
100
AcDbArc
 50
180.0
 51
278.8498830984
  0
ARC
  5
291
330
1F
100
AcDbEntity
  8
0
  6
Continuous
 62
     7
370
    30
100
AcDbCircle
 10
3.3780844406
 20
3.9566055924
 30
0.0
 40
0.0450000000000002
100
AcDbArc
 50
351.9770130931
 51
63.2145316219
  0
ARC
  5
292
330
1F
100
AcDbEntity
  8
0
  6
Continuous
 62
     7
370
    30
100
AcDbCircle
 10
3.2691382488
 20
4.4410207373
 30
0.0
 40
0.0505000000000009
100
AcDbArc
 50
70.0
 51
240.1644397768
  0
ARC
  5
293
330
1F
100
AcDbEntity
  8
0
  6
Continuous
 62
     7
370
    30
100
AcDbCircle
 10
6.5031382488
 20
3.6790207373
 30
0.0
 40
0.0319999999999996
100
AcDbArc
 50
261.1501169016
 51
0.0
  0
ARC
  5
294
330
1F
100
AcDbEntity
  8
0
  6
Continuous
 62
     7
370
    30
100
AcDbCircle
 10
6.5031382488
 20
3.6790207373
 30
0.0
 40
0.0499999999999998
100
AcDbArc
 50
261.1501169016
 51
0.0
  0
ARC
  5
295
330
1F
100
AcDbEntity
  8
0
  6
Continuous
 62
     7
370
    30
100
AcDbCircle
 10
6.2441920571
 20
3.9566055924
 30
0.0
 40
0.0629999999999999
100
AcDbArc
 50
116.7854683781
 51
188.0229869069
  0
LINE
  5
296
330
1F
100
AcDbEntity
  8
0
  6
Continuous
 62
     7
370
    30
100
AcDbLine
 10
6.3531382769
 20
4.2360207639
 30
0.0
 11
6.3531382769
 21
4.3538413561
 31
0.0
  0
LINE
  5
297
330
1F
100
AcDbEntity
  8
0
  6
Continuous
 62
     7
370
    30
100
AcDbLine
 10
6.3358662031
 20
4.4884751808
 30
0.0
 11
6.3297098676
 21
4.5053896854
 31
0.0
  0
ARC
  5
298
330
1F
100
AcDbEntity
  8
0
  6
Continuous
 62
     7
370
    30
100
AcDbCircle
 10
6.3531382488
 20
4.4410207373
 30
0.0
 40
0.0685000000000004
100
AcDbArc
 50
299.8355602232
 51
110.0
  0
ARC
  5
299
330
1F
100
AcDbEntity
  8
0
  6
Continuous
 62
     7
370
    30
100
AcDbCircle
 10
6.2441920571
 20
3.9566055924
 30
0.0
 40
0.0449999999999999
100
AcDbArc
 50
116.7854683781
 51
188.0229869069
  0
ARC
  5
29A
330
1F
100
AcDbEntity
  8
0
  6
Continuous
 62
     7
370
    30
100
AcDbCircle
 10
6.1031382488
 20
4.2360207373
 30
0.0
 40
0.2679999999999992
100
AcDbArc
 50
296.7854683781
 51
0.0
  0
LINE
  5
29B
330
1F
100
AcDbEntity
  8
0
  6
Continuous
 62
     7
370
    30
100
AcDbLine
 10
6.5351382145
 20
3.8090207299
 30
0.0
 11
6.5531382599
 21
3.8090207299
 31
0.0
  0
LINE
  5
29C
330
1F
100
AcDbEntity
  8
0
  6
Continuous
 62
     7
370
    30
100
AcDbLine
 10
6.5531382599
 20
3.8090207299
 30
0.0
 11
6.5531382599
 21
3.67902073
 31
0.0
  0
ARC
  5
29D
330
1F
100
AcDbEntity
  8
0
  6
Continuous
 62
     7
370
    30
100
AcDbCircle
 10
6.4031382488
 20
4.3538413246
 30
0.0
 40
0.0500000000000005
100
AcDbArc
 50
119.8355602232
 51
180.0
  0
ARC
  5
29E
330
1F
100
AcDbEntity
  8
0
  6
Continuous
 62
     7
370
    30
100
AcDbCircle
 10
6.3531382488
 20
4.4410207373
 30
0.0
 40
0.0504999999999996
100
AcDbArc
 50
299.8355602232
 51
110.0
  0
LINE
  5
29F
330
1F
100
AcDbEntity
  8
0
  6
Continuous
 62
     7
370
    30
100
AcDbLine
 10
6.371138249
 20
4.2360207639
 30
0.0
 11
6.371138249
 21
4.3538413561
 31
0.0
  0
ARC
  5
2A0
330
1F
100
AcDbEntity
  8
0
  6
Continuous
 62
     7
370
    30
100
AcDbCircle
 10
6.5531382488
 20
4.0001515518
 30
0.0
 40
0.3569999999999998
100
AcDbArc
 50
188.0229869069
 51
261.1501169016
  0
LINE
  5
2A1
330
1F
100
AcDbEntity
  8
0
  6
Continuous
 62
     7
370
    30
100
AcDbLine
 10
6.5351382145
 20
3.8090207299
 30
0.0
 11
6.5351382145
 21
3.67902073
 31
0.0
  0
ARC
  5
2A2
330
1F
100
AcDbEntity
  8
0
  6
Continuous
 62
     7
370
    30
100
AcDbCircle
 10
6.4031382488
 20
4.3538413246
 30
0.0
 40
0.032
100
AcDbArc
 50
119.8355602232
 51
180.0
  0
ARC
  5
2A3
330
1F
100
AcDbEntity
  8
0
  6
Continuous
 62
     7
370
    30
100
AcDbCircle
 10
6.5531382488
 20
4.0001515518
 30
0.0
 40
0.375
100
AcDbArc
 50
188.0229869069
 51
261.1501169016
  0
ARC
  5
2A4
330
1F
100
AcDbEntity
  8
0
  6
Continuous
 62
     7
370
    30
100
AcDbCircle
 10
6.1031382488
 20
4.2360207373
 30
0.0
 40
0.2499999999999993
100
AcDbArc
 50
296.7854683781
 51
0.0
  0
LINE
  5
2A5
330
1F
100
AcDbEntity
  8
0
  6
Continuous
 62
     7
370
    30
100
AcDbLine
 10
6.7691382179
 20
4.2360207639
 30
0.0
 11
6.7691382179
 21
4.3538413561
 31
0.0
  0
ARC
  5
2A6
330
1F
100
AcDbEntity
  8
0
  6
Continuous
 62
     7
370
    30
100
AcDbCircle
 10
7.0191382488
 20
4.2360207373
 30
0.0
 40
0.2500000000000004
100
AcDbArc
 50
180.0
 51
243.2145316219
  0
ARC
  5
2A7
330
1F
100
AcDbEntity
  8
0
  6
Continuous
 62
     7
370
    30
100
AcDbCircle
 10
6.8780844406
 20
3.9566055924
 30
0.0
 40
0.0630000000000005
100
AcDbArc
 50
351.9770130931
 51
63.2145316219
  0
ARC
  5
2A8
330
1F
100
AcDbEntity
  8
0
  6
Continuous
 62
     7
370
    30
100
AcDbCircle
 10
6.6191382488
 20
3.6790207373
 30
0.0
 40
0.0499999999999998
100
AcDbArc
 50
180.0
 51
278.8498830984
  0
LINE
  5
2A9
330
1F
100
AcDbEntity
  8
0
  6
Continuous
 62
     7
370
    30
100
AcDbLine
 10
6.569138235
 20
3.8090207299
 30
0.0
 11
6.569138235
 21
3.67902073
 31
0.0
  0
ARC
  5
2AA
330
1F
100
AcDbEntity
  8
0
  6
Continuous
 62
     7
370
    30
100
AcDbCircle
 10
6.5691382488
 20
4.0001515518
 30
0.0
 40
0.3570000000000007
100
AcDbArc
 50
278.8498830984
 51
351.9770130931
  0
ARC
  5
2AB
330
1F
100
AcDbEntity
  8
0
  6
Continuous
 62
     7
370
    30
100
AcDbCircle
 10
6.8780844406
 20
3.9566055924
 30
0.0
 40
0.0450000000000011
100
AcDbArc
 50
351.9770130931
 51
63.2145316219
  0
LINE
  5
2AC
330
1F
100
AcDbEntity
  8
0
  6
Continuous
 62
     7
370
    30
100
AcDbLine
 10
6.5871382804
 20
3.8090207299
 30
0.0
 11
6.569138235
 21
3.8090207299
 31
0.0
  0
ARC
  5
2AD
330
1F
100
AcDbEntity
  8
0
  6
Continuous
 62
     7
370
    30
100
AcDbCircle
 10
6.5691382488
 20
4.0001515518
 30
0.0
 40
0.3750000000000001
100
AcDbArc
 50
278.8498830984
 51
351.9770130931
  0
LINE
  5
2AE
330
1F
100
AcDbEntity
  8
0
  6
Continuous
 62
     7
370
    30
100
AcDbLine
 10
6.7511382459
 20
4.2360207639
 30
0.0
 11
6.7511382459
 21
4.3538413561
 31
0.0
  0
ARC
  5
2AF
330
1F
100
AcDbEntity
  8
0
  6
Continuous
 62
     7
370
    30
100
AcDbCircle
 10
7.0191382488
 20
4.2360207373
 30
0.0
 40
0.2679999999999998
100
AcDbArc
 50
180.0
 51
243.2145316219
  0
ARC
  5
2B0
330
1F
100
AcDbEntity
  8
0
  6
Continuous
 62
     7
370
    30
100
AcDbCircle
 10
6.6191382488
 20
3.6790207373
 30
0.0
 40
0.032
100
AcDbArc
 50
180.0
 51
278.8498830984
  0
ARC
  5
2B1
330
1F
100
AcDbEntity
  8
0
  6
Continuous
 62
     7
370
    30
100
AcDbCircle
 10
6.7191382488
 20
4.3538413246
 30
0.0
 40
0.05
100
AcDbArc
 50
0.0
 51
60.1644397768
  0
ARC
  5
2B2
330
1F
100
AcDbEntity
  8
0
  6
Continuous
 62
     7
370
    30
100
AcDbCircle
 10
6.7191382488
 20
4.3538413246
 30
0.0
 40
0.0320000000000004
100
AcDbArc
 50
0.0
 51
60.1644397768
  0
LINE
  5
2B3
330
1F
100
AcDbEntity
  8
0
  6
Continuous
 62
     7
370
    30
100
AcDbLine
 10
6.7864102917
 20
4.4884751808
 30
0.0
 11
6.7925666273
 21
4.5053896854
 31
0.0
  0
LINE
  5
2B4
330
1F
100
AcDbEntity
  8
0
  6
Continuous
 62
     7
370
    30
100
AcDbLine
 10
6.5871382804
 20
3.8090207299
 30
0.0
 11
6.5871382804
 21
3.67902073
 31
0.0
  0
ARC
  5
2B5
330
1F
100
AcDbEntity
  8
0
  6
Continuous
 62
     7
370
    30
100
AcDbCircle
 10
6.7691382488
 20
4.4410207373
 30
0.0
 40
0.0684999999999995
100
AcDbArc
 50
70.0
 51
240.1644397768
  0
ARC
  5
2B6
330
1F
100
AcDbEntity
  8
0
  6
Continuous
 62
     7
370
    30
100
AcDbCircle
 10
6.7691382488
 20
4.4410207373
 30
0.0
 40
0.0504999999999999
100
AcDbArc
 50
70.0
 51
240.1644397768
  0
LINE
  5
2B7
330
1F
100
AcDbEntity
  8
0
  6
Continuous
 62
     7
370
    30
100
AcDbLine
 10
8.3371381309
 20
3.8090207299
 30
0.0
 11
8.3371381309
 21
3.67902073
 31
0.0
  0
ARC
  5
2B8
330
1F
100
AcDbEntity
  8
0
  6
Continuous
 62
     7
370
    30
100
AcDbCircle
 10
8.7691382488
 20
4.2360207373
 30
0.0
 40
0.2680000000000007
100
AcDbArc
 50
180.0
 51
243.2145316219
  0
LINE
  5
2B9
330
1F
100
AcDbEntity
  8
0
  6
Continuous
 62
     7
370
    30
100
AcDbLine
 10
8.5011383164
 20
4.2360207639
 30
0.0
 11
8.5011383164
 21
4.3538413561
 31
0.0
  0
ARC
  5
2BA
330
1F
100
AcDbEntity
  8
0
  6
Continuous
 62
     7
370
    30
100
AcDbCircle
 10
8.3191382488
 20
4.0001515518
 30
0.0
 40
0.3570000000000007
100
AcDbArc
 50
278.8498830984
 51
351.9770130931
  0
LINE
  5
2BB
330
1F
100
AcDbEntity
  8
0
  6
Continuous
 62
     7
370
    30
100
AcDbLine
 10
8.5191382151
 20
4.2360207639
 30
0.0
 11
8.5191382151
 21
4.3538413561
 31
0.0
  0
ARC
  5
2BC
330
1F
100
AcDbEntity
  8
0
  6
Continuous
 62
     7
370
    30
100
AcDbCircle
 10
8.4691382488
 20
4.3538413246
 30
0.0
 40
0.0500000000000007
100
AcDbArc
 50
0.0
 51
60.1644397768
  0
ARC
  5
2BD
330
1F
100
AcDbEntity
  8
0
  6
Continuous
 62
     7
370
    30
100
AcDbCircle
 10
8.4691382488
 20
4.3538413246
 30
0.0
 40
0.0320000000000001
100
AcDbArc
 50
0.0
 51
60.1644397768
  0
ARC
  5
2BE
330
1F
100
AcDbEntity
  8
0
  6
Continuous
 62
     7
370
    30
100
AcDbCircle
 10
8.6280844406
 20
3.9566055924
 30
0.0
 40
0.0450000000000011
100
AcDbArc
 50
351.9770130931
 51
63.2145316219
  0
ARC
  5
2BF
330
1F
100
AcDbEntity
  8
0
  6
Continuous
 62
     7
370
    30
100
AcDbCircle
 10
8.5191382488
 20
4.4410207373
 30
0.0
 40
0.0505000000000004
100
AcDbArc
 50
70.0
 51
240.1644397768
  0
ARC
  5
2C0
330
1F
100
AcDbEntity
  8
0
  6
Continuous
 62
     7
370
    30
100
AcDbCircle
 10
8.3691382488
 20
3.6790207373
 30
0.0
 40
0.032
100
AcDbArc
 50
180.0
 51
278.8498830984
  0
LINE
  5
2C1
330
1F
100
AcDbEntity
  8
0
  6
Continuous
 62
     7
370
    30
100
AcDbLine
 10
8.3371381309
 20
3.8090207299
 30
0.0
 11
8.3191382322
 21
3.8090207299
 31
0.0
  0
ARC
  5
2C2
330
1F
100
AcDbEntity
  8
0
  6
Continuous
 62
     7
370
    30
100
AcDbCircle
 10
8.7691382488
 20
4.2360207373
 30
0.0
 40
0.2500000000000012
100
AcDbArc
 50
180.0
 51
243.2145316219
  0
ARC
  5
2C3
330
1F
100
AcDbEntity
  8
0
  6
Continuous
 62
     7
370
    30
100
AcDbCircle
 10
8.5191382488
 20
4.4410207373
 30
0.0
 40
0.0685000000000004
100
AcDbArc
 50
70.0
 51
240.1644397768
  0
ARC
  5
2C4
330
1F
100
AcDbEntity
  8
0
  6
Continuous
 62
     7
370
    30
100
AcDbCircle
 10
8.6280844406
 20
3.9566055924
 30
0.0
 40
0.0629999999999999
100
AcDbArc
 50
351.9770130931
 51
63.2145316219
  0
ARC
  5
2C5
330
1F
100
AcDbEntity
  8
0
  6
Continuous
 62
     7
370
    30
100
AcDbCircle
 10
8.3191382488
 20
4.0001515518
 30
0.0
 40
0.3750000000000001
100
AcDbArc
 50
278.8498830984
 51
351.9770130931
  0
LINE
  5
2C6
330
1F
100
AcDbEntity
  8
0
  6
Continuous
 62
     7
370
    30
100
AcDbLine
 10
8.5364103623
 20
4.4884751808
 30
0.0
 11
8.5425667711
 21
4.5053896854
 31
0.0
  0
ARC
  5
2C7
330
1F
100
AcDbEntity
  8
0
  6
Continuous
 62
     7
370
    30
100
AcDbCircle
 10
8.3691382488
 20
3.6790207373
 30
0.0
 40
0.0500000000000007
100
AcDbArc
 50
180.0
 51
278.8498830984
  0
LINE
  5
2C8
330
1F
100
AcDbEntity
  8
0
  6
Continuous
 62
     7
370
    30
100
AcDbLine
 10
8.3191382322
 20
3.8090207299
 30
0.0
 11
8.3191382322
 21
3.67902073
 31
0.0
  0
ARC
  5
2C9
330
1F
100
AcDbEntity
  8
0
  6
Continuous
 62
     7
370
    30
100
AcDbCircle
 10
8.1531382488
 20
4.3538413246
 30
0.0
 40
0.032
100
AcDbArc
 50
119.8355602232
 51
180.0
  0
LINE
  5
2CA
330
1F
100
AcDbEntity
  8
0
  6
Continuous
 62
     7
370
    30
100
AcDbLine
 10
8.1211383195
 20
4.2360207639
 30
0.0
 11
8.1211383195
 21
4.3538413561
 31
0.0
  0
ARC
  5
2CB
330
1F
100
AcDbEntity
  8
0
  6
Continuous
 62
     7
370
    30
100
AcDbCircle
 10
7.8531382488
 20
4.2360207373
 30
0.0
 40
0.268
100
AcDbArc
 50
296.7854683781
 51
0.0
  0
ARC
  5
2CC
330
1F
100
AcDbEntity
  8
0
  6
Continuous
 62
     7
370
    30
100
AcDbCircle
 10
7.9941920571
 20
3.9566055924
 30
0.0
 40
0.0450000000000002
100
AcDbArc
 50
116.7854683781
 51
188.0229869069
  0
ARC
  5
2CD
330
1F
100
AcDbEntity
  8
0
  6
Continuous
 62
     7
370
    30
100
AcDbCircle
 10
8.3031382488
 20
4.0001515518
 30
0.0
 40
0.3570000000000007
100
AcDbArc
 50
188.0229869069
 51
261.1501169016
  0
ARC
  5
2CE
330
1F
100
AcDbEntity
  8
0
  6
Continuous
 62
     7
370
    30
100
AcDbCircle
 10
8.2531382488
 20
3.6790207373
 30
0.0
 40
0.032
100
AcDbArc
 50
261.1501169016
 51
0.0
  0
LINE
  5
2CF
330
1F
100
AcDbEntity
  8
0
  6
Continuous
 62
     7
370
    30
100
AcDbLine
 10
8.2851383583
 20
3.8090207299
 30
0.0
 11
8.2851383583
 21
3.67902073
 31
0.0
  0
LINE
  5
2D0
330
1F
100
AcDbEntity
  8
0
  6
Continuous
 62
     7
370
    30
100
AcDbLine
 10
8.2851383583
 20
3.8090207299
 30
0.0
 11
8.303138257
 21
3.8090207299
 31
0.0
  0
ARC
  5
2D1
330
1F
100
AcDbEntity
  8
0
  6
Continuous
 62
     7
370
    30
100
AcDbCircle
 10
8.2531382488
 20
3.6790207373
 30
0.0
 40
0.0500000000000007
100
AcDbArc
 50
261.1501169016
 51
0.0
  0
ARC
  5
2D2
330
1F
100
AcDbEntity
  8
0
  6
Continuous
 62
     7
370
    30
100
AcDbCircle
 10
8.3031382488
 20
4.0001515518
 30
0.0
 40
0.3750000000000006
100
AcDbArc
 50
188.0229869069
 51
261.1501169016
  0
ARC
  5
2D3
330
1F
100
AcDbEntity
  8
0
  6
Continuous
 62
     7
370
    30
100
AcDbCircle
 10
7.9941920571
 20
3.9566055924
 30
0.0
 40
0.0629999999999999
100
AcDbArc
 50
116.7854683781
 51
188.0229869069
  0
ARC
  5
2D4
330
1F
100
AcDbEntity
  8
0
  6
Continuous
 62
     7
370
    30
100
AcDbCircle
 10
7.8531382488
 20
4.2360207373
 30
0.0
 40
0.25
100
AcDbArc
 50
296.7854683781
 51
0.0
  0
LINE
  5
2D5
330
1F
100
AcDbEntity
  8
0
  6
Continuous
 62
     7
370
    30
100
AcDbLine
 10
8.1031382741
 20
4.2360207639
 30
0.0
 11
8.1031382741
 21
4.3538413561
 31
0.0
  0
ARC
  5
2D6
330
1F
100
AcDbEntity
  8
0
  6
Continuous
 62
     7
370
    30
100
AcDbCircle
 10
8.1531382488
 20
4.3538413246
 30
0.0
 40
0.0500000000000007
100
AcDbArc
 50
119.8355602232
 51
180.0
  0
ARC
  5
2D7
330
1F
100
AcDbEntity
  8
0
  6
Continuous
 62
     7
370
    30
100
AcDbCircle
 10
8.1031382488
 20
4.4410207373
 30
0.0
 40
0.0505000000000008
100
AcDbArc
 50
299.8355602232
 51
110.0
  0
LINE
  5
2D8
330
1F
100
AcDbEntity
  8
0
  6
Continuous
 62
     7
370
    30
100
AcDbLine
 10
8.0858662737
 20
4.4884751808
 30
0.0
 11
8.0797098648
 21
4.5053896854
 31
0.0
  0
ARC
  5
2D9
330
1F
100
AcDbEntity
  8
0
  6
Continuous
 62
     7
370
    30
100
AcDbCircle
 10
8.1031382488
 20
4.4410207373
 30
0.0
 40
0.0685000000000012
100
AcDbArc
 50
299.8355602232
 51
110.0
  0
LINE
  5
2DA
330
1F
100
AcDbEntity
  8
0
  6
Continuous
 62
     7
370
    30
100
AcDbLine
 10
8.303138257
 20
3.8090207299
 30
0.0
 11
8.303138257
 21
3.67902073
 31
0.0
  0
ARC
  5
2DB
330
1F
100
AcDbEntity
  8
0
  6
Continuous
 62
     7
370
    30
100
AcDbCircle
 10
5.0191382488
 20
4.4410207373
 30
0.0
 40
0.0505000000000004
100
AcDbArc
 50
70.0
 51
240.1644397768
  0
LINE
  5
2DC
330
1F
100
AcDbEntity
  8
0
  6
Continuous
 62
     7
370
    30
100
AcDbLine
 10
5.0191382208
 20
4.2360207639
 30
0.0
 11
5.0191382208
 21
4.3538413561
 31
0.0
  0
ARC
  5
2DD
330
1F
100
AcDbEntity
  8
0
  6
Continuous
 62
     7
370
    30
100
AcDbCircle
 10
5.2691382488
 20
4.2360207373
 30
0.0
 40
0.25
100
AcDbArc
 50
180.0
 51
243.2145316219
  0
ARC
  5
2DE
330
1F
100
AcDbEntity
  8
0
  6
Continuous
 62
     7
370
    30
100
AcDbCircle
 10
5.1280844406
 20
3.9566055924
 30
0.0
 40
0.0630000000000004
100
AcDbArc
 50
351.9770130931
 51
63.2145316219
  0
ARC
  5
2DF
330
1F
100
AcDbEntity
  8
0
  6
Continuous
 62
     7
370
    30
100
AcDbCircle
 10
4.8191382488
 20
4.0001515518
 30
0.0
 40
0.375
100
AcDbArc
 50
278.8498830984
 51
351.9770130931
  0
ARC
  5
2E0
330
1F
100
AcDbEntity
  8
0
  6
Continuous
 62
     7
370
    30
100
AcDbCircle
 10
4.8691382488
 20
3.6790207373
 30
0.0
 40
0.0499999999999999
100
AcDbArc
 50
180.0
 51
278.8498830984
  0
LINE
  5
2E1
330
1F
100
AcDbEntity
  8
0
  6
Continuous
 62
     7
370
    30
100
AcDbLine
 10
4.8191382378
 20
3.8090207299
 30
0.0
 11
4.8191382378
 21
3.67902073
 31
0.0
  0
LINE
  5
2E2
330
1F
100
AcDbEntity
  8
0
  6
Continuous
 62
     7
370
    30
100
AcDbLine
 10
4.8371382832
 20
3.8090207299
 30
0.0
 11
4.8191382378
 21
3.8090207299
 31
0.0
  0
LINE
  5
2E3
330
1F
100
AcDbEntity
  8
0
  6
Continuous
 62
     7
370
    30
100
AcDbLine
 10
4.8371382832
 20
3.8090207299
 30
0.0
 11
4.8371382832
 21
3.67902073
 31
0.0
  0
ARC
  5
2E4
330
1F
100
AcDbEntity
  8
0
  6
Continuous
 62
     7
370
    30
100
AcDbCircle
 10
4.8691382488
 20
3.6790207373
 30
0.0
 40
0.032
100
AcDbArc
 50
180.0
 51
278.8498830984
  0
ARC
  5
2E5
330
1F
100
AcDbEntity
  8
0
  6
Continuous
 62
     7
370
    30
100
AcDbCircle
 10
4.8191382488
 20
4.0001515518
 30
0.0
 40
0.3569999999999998
100
AcDbArc
 50
278.8498830984
 51
351.9770130931
  0
ARC
  5
2E6
330
1F
100
AcDbEntity
  8
0
  6
Continuous
 62
     7
370
    30
100
AcDbCircle
 10
5.1280844406
 20
3.9566055924
 30
0.0
 40
0.0450000000000003
100
AcDbArc
 50
351.9770130931
 51
63.2145316219
  0
ARC
  5
2E7
330
1F
100
AcDbEntity
  8
0
  6
Continuous
 62
     7
370
    30
100
AcDbCircle
 10
5.2691382488
 20
4.2360207373
 30
0.0
 40
0.2679999999999996
100
AcDbArc
 50
180.0
 51
243.2145316219
  0
LINE
  5
2E8
330
1F
100
AcDbEntity
  8
0
  6
Continuous
 62
     7
370
    30
100
AcDbLine
 10
5.0011382487
 20
4.2360207639
 30
0.0
 11
5.0011382487
 21
4.3538413561
 31
0.0
  0
ARC
  5
2E9
330
1F
100
AcDbEntity
  8
0
  6
Continuous
 62
     7
370
    30
100
AcDbCircle
 10
4.9691382488
 20
4.3538413246
 30
0.0
 40
0.0320000000000009
100
AcDbArc
 50
0.0
 51
60.1644397768
  0
ARC
  5
2EA
330
1F
100
AcDbEntity
  8
0
  6
Continuous
 62
     7
370
    30
100
AcDbCircle
 10
4.9691382488
 20
4.3538413246
 30
0.0
 40
0.05
100
AcDbArc
 50
0.0
 51
60.1644397768
  0
ARC
  5
2EB
330
1F
100
AcDbEntity
  8
0
  6
Continuous
 62
     7
370
    30
100
AcDbCircle
 10
5.0191382488
 20
4.4410207373
 30
0.0
 40
0.0685000000000007
100
AcDbArc
 50
70.0
 51
240.1644397768
  0
LINE
  5
2EC
330
1F
100
AcDbEntity
  8
0
  6
Continuous
 62
     7
370
    30
100
AcDbLine
 10
5.0364102946
 20
4.4884751808
 30
0.0
 11
5.0425666301
 21
4.5053896854
 31
0.0
  0
ARC
  5
2ED
330
1F
100
AcDbEntity
  8
0
  6
Continuous
 62
     7
370
    30
100
AcDbCircle
 10
2.9031382488
 20
4.3538413246
 30
0.0
 40
0.0320000000000002
100
AcDbArc
 50
119.8355602232
 51
180.0
  0
ARC
  5
2EE
330
1F
100
AcDbEntity
  8
0
  6
Continuous
 62
     7
370
    30
100
AcDbCircle
 10
2.7441920571
 20
3.9566055924
 30
0.0
 40
0.0450000000000001
100
AcDbArc
 50
116.7854683781
 51
188.0229869069
  0
ARC
  5
2EF
330
1F
100
AcDbEntity
  8
0
  6
Continuous
 62
     7
370
    30
100
AcDbCircle
 10
3.0031382488
 20
3.6790207373
 30
0.0
 40
0.032
100
AcDbArc
 50
261.1501169016
 51
0.0
  0
LINE
  5
2F0
330
1F
100
AcDbEntity
  8
0
  6
Continuous
 62
     7
370
    30
100
AcDbLine
 10
3.0351383668
 20
3.8090207299
 30
0.0
 11
3.0531382655
 21
3.8090207299
 31
0.0
  0
ARC
  5
2F1
330
1F
100
AcDbEntity
  8
0
  6
Continuous
 62
     7
370
    30
100
AcDbCircle
 10
3.0031382488
 20
3.6790207373
 30
0.0
 40
0.0500000000000003
100
AcDbArc
 50
261.1501169016
 51
0.0
  0
LINE
  5
2F2
330
1F
100
AcDbEntity
  8
0
  6
Continuous
 62
     7
370
    30
100
AcDbLine
 10
2.8358661354
 20
4.4884751808
 30
0.0
 11
2.8297097266
 21
4.5053896854
 31
0.0
  0
ARC
  5
2F3
330
1F
100
AcDbEntity
  8
0
  6
Continuous
 62
     7
370
    30
100
AcDbCircle
 10
2.8531382488
 20
4.4410207373
 30
0.0
 40
0.0685000000000004
100
AcDbArc
 50
299.8355602232
 51
110.0
  0
ARC
  5
2F4
330
1F
100
AcDbEntity
  8
0
  6
Continuous
 62
     7
370
    30
100
AcDbCircle
 10
2.6031382488
 20
4.2360207373
 30
0.0
 40
0.2679999999999998
100
AcDbArc
 50
296.7854683781
 51
0.0
  0
ARC
  5
2F5
330
1F
100
AcDbEntity
  8
0
  6
Continuous
 62
     7
370
    30
100
AcDbCircle
 10
3.0531382488
 20
4.0001515518
 30
0.0
 40
0.3570000000000002
100
AcDbArc
 50
188.0229869069
 51
261.1501169016
  0
LINE
  5
2F6
330
1F
100
AcDbEntity
  8
0
  6
Continuous
 62
     7
370
    30
100
AcDbLine
 10
3.0351383668
 20
3.8090207299
 30
0.0
 11
3.0351383668
 21
3.67902073
 31
0.0
  0
LINE
  5
2F7
330
1F
100
AcDbEntity
  8
0
  6
Continuous
 62
     7
370
    30
100
AcDbLine
 10
2.8711381813
 20
4.2360207639
 30
0.0
 11
2.8711381813
 21
4.3538413561
 31
0.0
  0
LINE
  5
2F8
330
1F
100
AcDbEntity
  8
0
  6
Continuous
 62
     7
370
    30
100
AcDbLine
 10
3.0531382655
 20
3.8090207299
 30
0.0
 11
3.0531382655
 21
3.67902073
 31
0.0
  0
ARC
  5
2F9
330
1F
100
AcDbEntity
  8
0
  6
Continuous
 62
     7
370
    30
100
AcDbCircle
 10
2.7441920571
 20
3.9566055924
 30
0.0
 40
0.0630000000000003
100
AcDbArc
 50
116.7854683781
 51
188.0229869069
  0
ARC
  5
2FA
330
1F
100
AcDbEntity
  8
0
  6
Continuous
 62
     7
370
    30
100
AcDbCircle
 10
2.9031382488
 20
4.3538413246
 30
0.0
 40
0.0500000000000002
100
AcDbArc
 50
119.8355602232
 51
180.0
  0
ARC
  5
2FB
330
1F
100
AcDbEntity
  8
0
  6
Continuous
 62
     7
370
    30
100
AcDbCircle
 10
2.8531382488
 20
4.4410207373
 30
0.0
 40
0.0505000000000004
100
AcDbArc
 50
299.8355602232
 51
110.0
  0
ARC
  5
2FC
330
1F
100
AcDbEntity
  8
0
  6
Continuous
 62
     7
370
    30
100
AcDbCircle
 10
2.6031382488
 20
4.2360207373
 30
0.0
 40
0.2499999999999996
100
AcDbArc
 50
296.7854683781
 51
0.0
  0
LINE
  5
2FD
330
1F
100
AcDbEntity
  8
0
  6
Continuous
 62
     7
370
    30
100
AcDbLine
 10
2.8531382826
 20
4.2360207639
 30
0.0
 11
2.8531382826
 21
4.3538413561
 31
0.0
  0
ARC
  5
2FE
330
1F
100
AcDbEntity
  8
0
  6
Continuous
 62
     7
370
    30
100
AcDbCircle
 10
3.0531382488
 20
4.0001515518
 30
0.0
 40
0.3750000000000006
100
AcDbArc
 50
188.0229869069
 51
261.1501169016
  0
ARC
  5
2FF
330
1F
100
AcDbEntity
  8
0
  6
Continuous
 62
     7
370
    30
100
AcDbCircle
 10
4.6531382488
 20
4.3538413246
 30
0.0
 40
0.0320000000000004
100
AcDbArc
 50
119.8355602232
 51
180.0
  0
ARC
  5
300
330
1F
100
AcDbEntity
  8
0
  6
Continuous
 62
     7
370
    30
100
AcDbCircle
 10
4.3531382488
 20
4.2360207373
 30
0.0
 40
0.2680000000000007
100
AcDbArc
 50
296.7854683781
 51
0.0
  0
ARC
  5
301
330
1F
100
AcDbEntity
  8
0
  6
Continuous
 62
     7
370
    30
100
AcDbCircle
 10
4.8031382488
 20
4.0001515518
 30
0.0
 40
0.3570000000000008
100
AcDbArc
 50
188.0229869069
 51
261.1501169016
  0
ARC
  5
302
330
1F
100
AcDbEntity
  8
0
  6
Continuous
 62
     7
370
    30
100
AcDbCircle
 10
4.7531382488
 20
3.6790207373
 30
0.0
 40
0.0320000000000005
100
AcDbArc
 50
261.1501169016
 51
0.0
  0
LINE
  5
303
330
1F
100
AcDbEntity
  8
0
  6
Continuous
 62
     7
370
    30
100
AcDbLine
 10
4.7851382173
 20
3.8090207299
 30
0.0
 11
4.7851382173
 21
3.67902073
 31
0.0
  0
LINE
  5
304
330
1F
100
AcDbEntity
  8
0
  6
Continuous
 62
     7
370
    30
100
AcDbLine
 10
4.7851382173
 20
3.8090207299
 30
0.0
 11
4.8031382627
 21
3.8090207299
 31
0.0
  0
LINE
  5
305
330
1F
100
AcDbEntity
  8
0
  6
Continuous
 62
     7
370
    30
100
AcDbLine
 10
4.8031382627
 20
3.8090207299
 30
0.0
 11
4.8031382627
 21
3.67902073
 31
0.0
  0
ARC
  5
306
330
1F
100
AcDbEntity
  8
0
  6
Continuous
 62
     7
370
    30
100
AcDbCircle
 10
4.7531382488
 20
3.6790207373
 30
0.0
 40
0.0499999999999998
100
AcDbArc
 50
261.1501169016
 51
0.0
  0
ARC
  5
307
330
1F
100
AcDbEntity
  8
0
  6
Continuous
 62
     7
370
    30
100
AcDbCircle
 10
4.8031382488
 20
4.0001515518
 30
0.0
 40
0.3750000000000009
100
AcDbArc
 50
188.0229869069
 51
261.1501169016
  0
ARC
  5
308
330
1F
100
AcDbEntity
  8
0
  6
Continuous
 62
     7
370
    30
100
AcDbCircle
 10
4.4941920571
 20
3.9566055924
 30
0.0
 40
0.0630000000000004
100
AcDbArc
 50
116.7854683781
 51
188.0229869069
  0
ARC
  5
309
330
1F
100
AcDbEntity
  8
0
  6
Continuous
 62
     7
370
    30
100
AcDbCircle
 10
4.3531382488
 20
4.2360207373
 30
0.0
 40
0.2500000000000009
100
AcDbArc
 50
296.7854683781
 51
0.0
  0
LINE
  5
30A
330
1F
100
AcDbEntity
  8
0
  6
Continuous
 62
     7
370
    30
100
AcDbLine
 10
4.6031382798
 20
4.2360207639
 30
0.0
 11
4.6031382798
 21
4.3538413561
 31
0.0
  0
ARC
  5
30B
330
1F
100
AcDbEntity
  8
0
  6
Continuous
 62
     7
370
    30
100
AcDbCircle
 10
4.6531382488
 20
4.3538413246
 30
0.0
 40
0.0499999999999998
100
AcDbArc
 50
119.8355602232
 51
180.0
  0
ARC
  5
30C
330
1F
100
AcDbEntity
  8
0
  6
Continuous
 62
     7
370
    30
100
AcDbCircle
 10
4.6031382488
 20
4.4410207373
 30
0.0
 40
0.0505000000000002
100
AcDbArc
 50
299.8355602232
 51
110.0
  0
LINE
  5
30D
330
1F
100
AcDbEntity
  8
0
  6
Continuous
 62
     7
370
    30
100
AcDbLine
 10
4.585866206
 20
4.4884751808
 30
0.0
 11
4.5797098704
 21
4.5053896854
 31
0.0
  0
ARC
  5
30E
330
1F
100
AcDbEntity
  8
0
  6
Continuous
 62
     7
370
    30
100
AcDbCircle
 10
4.6031382488
 20
4.4410207373
 30
0.0
 40
0.0684999999999999
100
AcDbArc
 50
299.8355602232
 51
110.0
  0
LINE
  5
30F
330
1F
100
AcDbEntity
  8
0
  6
Continuous
 62
     7
370
    30
100
AcDbLine
 10
4.6211382518
 20
4.2360207639
 30
0.0
 11
4.6211382518
 21
4.3538413561
 31
0.0
  0
ARC
  5
310
330
1F
100
AcDbEntity
  8
0
  6
Continuous
 62
     7
370
    30
100
AcDbCircle
 10
4.4941920571
 20
3.9566055924
 30
0.0
 40
0.0450000000000003
100
AcDbArc
 50
116.7854683781
 51
188.0229869069
  0
LINE
  5
311
330
1F
100
AcDbEntity
  8
0
  6
Continuous
 62
     7
370
    30
100
AcDbLine
 10
6.4672080592
 20
4.5672656573
 30
0.0
 11
6.4875684573
 21
4.5790207082
 31
0.0
  0
LINE
  5
312
330
1F
100
AcDbEntity
  8
0
  6
Continuous
 62
     7
370
    30
100
AcDbLine
 10
6.4875684573
 20
4.4381270758
 30
0.0
 11
6.4875684573
 21
4.4439838481
 31
0.0
  0
ARC
  5
313
330
1F
100
AcDbEntity
  8
0
  6
Continuous
 62
     7
370
    30
100
AcDbCircle
 10
6.4791382488
 20
4.2950207373
 30
0.0
 40
0.0310000000000006
100
AcDbArc
 50
95.4495226951
 51
270.0
  0
LINE
  5
314
330
1F
100
AcDbEntity
  8
0
  6
Continuous
 62
     7
370
    30
100
AcDbLine
 10
6.6431382668
 20
4.2640207204
 30
0.0
 11
6.479138228
 21
4.2640207204
 31
0.0
  0
ARC
  5
315
330
1F
100
AcDbEntity
  8
0
  6
Continuous
 62
     7
370
    30
100
AcDbCircle
 10
6.6601711838
 20
4.3290427595
 30
0.0
 40
0.0100000000000104
100
AcDbArc
 50
165.3098749059
 51
203.8403348298
  0
LINE
  5
316
330
1F
100
AcDbEntity
  8
0
  6
Continuous
 62
     7
370
    30
100
AcDbLine
 10
6.6550993087
 20
4.3342351826
 30
0.0
 11
6.6504980618
 21
4.33157864
 31
0.0
  0
LINE
  5
317
330
1F
100
AcDbEntity
  8
0
  6
Continuous
 62
     7
370
    30
100
AcDbLine
 10
6.6550993087
 20
4.3400916616
 30
0.0
 11
6.6550993087
 21
4.3342351826
 31
0.0
  0
LINE
  5
318
330
1F
100
AcDbEntity
  8
0
  6
Continuous
 62
     7
370
    30
100
AcDbLine
 10
6.6550993087
 20
4.369458609
 30
0.0
 11
6.6347389839
 21
4.3577035582
 31
0.0
  0
LINE
  5
319
330
1F
100
AcDbEntity
  8
0
  6
Continuous
 62
     7
370
    30
100
AcDbLine
 10
6.6550993087
 20
4.375315088
 30
0.0
 11
6.6550993087
 21
4.369458609
 31
0.0
  0
LINE
  5
31A
330
1F
100
AcDbEntity
  8
0
  6
Continuous
 62
     7
370
    30
100
AcDbLine
 10
6.6347389839
 20
4.3870701389
 30
0.0
 11
6.6550993087
 21
4.375315088
 31
0.0
  0
LINE
  5
31B
330
1F
100
AcDbEntity
  8
0
  6
Continuous
 62
     7
370
    30
100
AcDbLine
 10
6.6347389839
 20
4.3929269846
 30
0.0
 11
6.6347389839
 21
4.3870701389
 31
0.0
  0
LINE
  5
31C
330
1F
100
AcDbEntity
  8
0
  6
Continuous
 62
     7
370
    30
100
AcDbLine
 10
6.6550993087
 20
4.4046820355
 30
0.0
 11
6.6347389839
 21
4.3929269846
 31
0.0
  0
LINE
  5
31D
330
1F
100
AcDbEntity
  8
0
  6
Continuous
 62
     7
370
    30
100
AcDbLine
 10
6.6550993087
 20
4.4105385145
 30
0.0
 11
6.6550993087
 21
4.4046820355
 31
0.0
  0
LINE
  5
31E
330
1F
100
AcDbEntity
  8
0
  6
Continuous
 62
     7
370
    30
100
AcDbLine
 10
6.6347389839
 20
4.4222935654
 30
0.0
 11
6.6550993087
 21
4.4105385145
 31
0.0
  0
LINE
  5
31F
330
1F
100
AcDbEntity
  8
0
  6
Continuous
 62
     7
370
    30
100
AcDbLine
 10
6.6347389839
 20
4.428150411
 30
0.0
 11
6.6347389839
 21
4.4222935654
 31
0.0
  0
LINE
  5
320
330
1F
100
AcDbEntity
  8
0
  6
Continuous
 62
     7
370
    30
100
AcDbLine
 10
6.6550993087
 20
4.4457619409
 30
0.0
 11
6.6550993087
 21
4.4399054619
 31
0.0
  0
LINE
  5
321
330
1F
100
AcDbEntity
  8
0
  6
Continuous
 62
     7
370
    30
100
AcDbLine
 10
6.6347389839
 20
4.4575169918
 30
0.0
 11
6.6550993087
 21
4.4457619409
 31
0.0
  0
LINE
  5
322
330
1F
100
AcDbEntity
  8
0
  6
Continuous
 62
     7
370
    30
100
AcDbLine
 10
6.6347389839
 20
4.4633738375
 30
0.0
 11
6.6347389839
 21
4.4575169918
 31
0.0
  0
LINE
  5
323
330
1F
100
AcDbEntity
  8
0
  6
Continuous
 62
     7
370
    30
100
AcDbLine
 10
6.6550993087
 20
4.4809853673
 30
0.0
 11
6.6550993087
 21
4.4751288883
 31
0.0
  0
LINE
  5
324
330
1F
100
AcDbEntity
  8
0
  6
Continuous
 62
     7
370
    30
100
AcDbLine
 10
6.6550993087
 20
4.5162087938
 30
0.0
 11
6.6550993087
 21
4.5103523148
 31
0.0
  0
LINE
  5
325
330
1F
100
AcDbEntity
  8
0
  6
Continuous
 62
     7
370
    30
100
AcDbLine
 10
6.6347389839
 20
4.5338206903
 30
0.0
 11
6.6347389839
 21
4.5279638446
 31
0.0
  0
LINE
  5
326
330
1F
100
AcDbEntity
  8
0
  6
Continuous
 62
     7
370
    30
100
AcDbLine
 10
6.6550993087
 20
4.5514322202
 30
0.0
 11
6.6550993087
 21
4.5455757412
 31
0.0
  0
LINE
  5
327
330
1F
100
AcDbEntity
  8
0
  6
Continuous
 62
     7
370
    30
100
AcDbLine
 10
6.6347389839
 20
4.5631872711
 30
0.0
 11
6.6550993087
 21
4.5514322202
 31
0.0
  0
LINE
  5
328
330
1F
100
AcDbEntity
  8
0
  6
Continuous
 62
     7
370
    30
100
AcDbLine
 10
6.6520189776
 20
4.5790207082
 30
0.0
 11
6.6347389839
 21
4.5690441167
 31
0.0
  0
ARC
  5
329
330
1F
100
AcDbEntity
  8
0
  6
Continuous
 62
     7
370
    30
100
AcDbCircle
 10
6.7491382488
 20
4.5170207373
 30
0.0
 40
0.0620000000000003
100
AcDbArc
 50
360.0
 51
90.0
  0
LINE
  5
32A
330
1F
100
AcDbEntity
  8
0
  6
Continuous
 62
     7
370
    30
100
AcDbLine
 10
6.8111382261
 20
4.5170207311
 30
0.0
 11
6.8111382261
 21
4.5154317627
 31
0.0
  0
ARC
  5
32B
330
1F
100
AcDbEntity
  8
0
  6
Continuous
 62
     7
370
    30
100
AcDbCircle
 10
6.8011382488
 20
4.515431758
 30
0.0
 40
0.00999999999999
100
AcDbArc
 50
246.7301760415
 51
0.0
  0
ARC
  5
32C
330
1F
100
AcDbEntity
  8
0
  6
Continuous
 62
     7
370
    30
100
AcDbCircle
 10
6.7136382488
 20
4.3689045117
 30
0.0
 40
0.0200000000000005
100
AcDbArc
 50
0.0
 51
52.4184423812
  0
LINE
  5
32D
330
1F
100
AcDbEntity
  8
0
  6
Continuous
 62
     7
370
    30
100
AcDbLine
 10
6.7336382547
 20
4.2040207402
 30
0.0
 11
6.7336382547
 21
4.3689045088
 31
0.0
  0
LINE
  5
32E
330
1F
100
AcDbEntity
  8
0
  6
Continuous
 62
     7
370
    30
100
AcDbLine
 10
6.7336382547
 20
4.2040207402
 30
0.0
 11
6.3886382402
 21
4.2040207402
 31
0.0
  0
ARC
  5
32F
330
1F
100
AcDbEntity
  8
0
  6
Continuous
 62
     7
370
    30
100
AcDbCircle
 10
6.3531382488
 20
4.4410207373
 30
0.0
 40
0.0710000000000108
100
AcDbArc
 50
307.5815576188
 51
113.2698239585
  0
ARC
  5
330
330
1F
100
AcDbEntity
  8
0
  6
Continuous
 62
     7
370
    30
100
AcDbCircle
 10
6.3211382488
 20
4.515431758
 30
0.0
 40
0.0099999999999989
100
AcDbArc
 50
180.0
 51
293.2698239585
  0
LINE
  5
331
330
1F
100
AcDbEntity
  8
0
  6
Continuous
 62
     7
370
    30
100
AcDbLine
 10
6.3111382688
 20
4.5170207311
 30
0.0
 11
6.3111382688
 21
4.5154317627
 31
0.0
  0
LINE
  5
332
330
1F
100
AcDbEntity
  8
0
  6
Continuous
 62
     7
370
    30
100
AcDbLine
 10
6.3886382402
 20
4.3689045088
 30
0.0
 11
6.3886382402
 21
4.2040207402
 31
0.0
  0
ARC
  5
333
330
1F
100
AcDbEntity
  8
0
  6
Continuous
 62
     7
370
    30
100
AcDbCircle
 10
6.7691382488
 20
4.4410207373
 30
0.0
 40
0.0710000000000077
100
AcDbArc
 50
66.7301760415
 51
232.4184423812
  0
LINE
  5
334
330
1F
100
AcDbEntity
  8
0
  6
Continuous
 62
     7
370
    30
100
AcDbLine
 10
6.4875684573
 20
4.5085738553
 30
0.0
 11
6.4875684573
 21
4.514430701
 31
0.0
  0
LINE
  5
335
330
1F
100
AcDbEntity
  8
0
  6
Continuous
 62
     7
370
    30
100
AcDbLine
 10
6.4672080592
 20
4.5261857518
 30
0.0
 11
6.4672080592
 21
4.5320422309
 31
0.0
  0
LINE
  5
336
330
1F
100
AcDbEntity
  8
0
  6
Continuous
 62
     7
370
    30
100
AcDbLine
 10
6.4875684573
 20
4.5437972817
 30
0.0
 11
6.4875684573
 21
4.5496541274
 31
0.0
  0
LINE
  5
337
330
1F
100
AcDbEntity
  8
0
  6
Continuous
 62
     7
370
    30
100
AcDbLine
 10
6.4672080592
 20
4.5614091783
 30
0.0
 11
6.4672080592
 21
4.5672656573
 31
0.0
  0
LINE
  5
338
330
1F
100
AcDbEntity
  8
0
  6
Continuous
 62
     7
370
    30
100
AcDbLine
 10
6.6550993087
 20
4.5103523148
 30
0.0
 11
6.6347389839
 21
4.4985972639
 31
0.0
  0
LINE
  5
339
330
1F
100
AcDbEntity
  8
0
  6
Continuous
 62
     7
370
    30
100
AcDbLine
 10
6.6347389839
 20
4.4927404182
 30
0.0
 11
6.6550993087
 21
4.4809853673
 31
0.0
  0
LINE
  5
33A
330
1F
100
AcDbEntity
  8
0
  6
Continuous
 62
     7
370
    30
100
AcDbLine
 10
6.6347389839
 20
4.4985972639
 30
0.0
 11
6.6347389839
 21
4.4927404182
 31
0.0
  0
ARC
  5
33B
330
1F
100
AcDbEntity
  8
0
  6
Continuous
 62
     7
370
    30
100
AcDbCircle
 10
6.3731382488
 20
4.5170207373
 30
0.0
 40
0.0620000000000003
100
AcDbArc
 50
90.0
 51
180.0
  0
LINE
  5
33C
330
1F
100
AcDbEntity
  8
0
  6
Continuous
 62
     7
370
    30
100
AcDbLine
 10
6.6347389839
 20
4.3577035582
 30
0.0
 11
6.6347389839
 21
4.3518467858
 31
0.0
  0
LINE
  5
33D
330
1F
100
AcDbEntity
  8
0
  6
Continuous
 62
     7
370
    30
100
AcDbLine
 10
6.487569264
 20
4.3383131288
 30
0.0
 11
6.4672080592
 21
4.3500686197
 31
0.0
  0
LINE
  5
33E
330
1F
100
AcDbEntity
  8
0
  6
Continuous
 62
     7
370
    30
100
AcDbLine
 10
6.4672080592
 20
4.355925172
 30
0.0
 11
6.4875684573
 21
4.3676802229
 31
0.0
  0
LINE
  5
33F
330
1F
100
AcDbEntity
  8
0
  6
Continuous
 62
     7
370
    30
100
AcDbLine
 10
6.4875684573
 20
4.4792072745
 30
0.0
 11
6.4672080592
 21
4.4909623254
 31
0.0
  0
LINE
  5
340
330
1F
100
AcDbEntity
  8
0
  6
Continuous
 62
     7
370
    30
100
AcDbLine
 10
6.4875684573
 20
4.514430701
 30
0.0
 11
6.4672080592
 21
4.5261857518
 31
0.0
  0
LINE
  5
341
330
1F
100
AcDbEntity
  8
0
  6
Continuous
 62
     7
370
    30
100
AcDbLine
 10
6.4672080592
 20
4.5320422309
 30
0.0
 11
6.4875684573
 21
4.5437972817
 31
0.0
  0
LINE
  5
342
330
1F
100
AcDbEntity
  8
0
  6
Continuous
 62
     7
370
    30
100
AcDbLine
 10
6.4875684573
 20
4.5496541274
 30
0.0
 11
6.4672080592
 21
4.5614091783
 31
0.0
  0
LINE
  5
343
330
1F
100
AcDbEntity
  8
0
  6
Continuous
 62
     7
370
    30
100
AcDbLine
 10
6.6347389839
 20
4.5279638446
 30
0.0
 11
6.6550993087
 21
4.5162087938
 31
0.0
  0
LINE
  5
344
330
1F
100
AcDbEntity
  8
0
  6
Continuous
 62
     7
370
    30
100
AcDbLine
 10
6.6550993087
 20
4.4751288883
 30
0.0
 11
6.6347389839
 21
4.4633738375
 31
0.0
  0
LINE
  5
345
330
1F
100
AcDbEntity
  8
0
  6
Continuous
 62
     7
370
    30
100
AcDbLine
 10
6.6550993087
 20
4.4399054619
 30
0.0
 11
6.6347389839
 21
4.428150411
 31
0.0
  0
LINE
  5
346
330
1F
100
AcDbEntity
  8
0
  6
Continuous
 62
     7
370
    30
100
AcDbLine
 10
6.6347389839
 20
4.3518467858
 30
0.0
 11
6.6550993087
 21
4.3400916616
 31
0.0
  0
ARC
  5
347
330
1F
100
AcDbEntity
  8
0
  6
Continuous
 62
     7
370
    30
100
AcDbCircle
 10
6.6431382488
 20
4.2950207373
 30
0.0
 40
0.0309999999999997
100
AcDbArc
 50
270.0
 51
75.2623825484
  0
LINE
  5
348
330
1F
100
AcDbEntity
  8
0
  6
Continuous
 62
     7
370
    30
100
AcDbLine
 10
6.487569264
 20
4.3324479966
 30
0.0
 11
6.487569264
 21
4.3383131288
 31
0.0
  0
LINE
  5
349
330
1F
100
AcDbEntity
  8
0
  6
Continuous
 62
     7
370
    30
100
AcDbLine
 10
6.4672080592
 20
4.3500686197
 30
0.0
 11
6.4672080592
 21
4.355925172
 31
0.0
  0
LINE
  5
34A
330
1F
100
AcDbEntity
  8
0
  6
Continuous
 62
     7
370
    30
100
AcDbLine
 10
6.4672080592
 20
4.3852920461
 30
0.0
 11
6.4672080592
 21
4.3911485251
 31
0.0
  0
LINE
  5
34B
330
1F
100
AcDbEntity
  8
0
  6
Continuous
 62
     7
370
    30
100
AcDbLine
 10
6.4875684573
 20
4.4029036493
 30
0.0
 11
6.4875684573
 21
4.4087604217
 31
0.0
  0
LINE
  5
34C
330
1F
100
AcDbEntity
  8
0
  6
Continuous
 62
     7
370
    30
100
AcDbLine
 10
6.4672080592
 20
4.4263719516
 30
0.0
 11
6.4875684573
 21
4.4381270758
 31
0.0
  0
LINE
  5
34D
330
1F
100
AcDbEntity
  8
0
  6
Continuous
 62
     7
370
    30
100
AcDbLine
 10
6.4672080592
 20
4.4205154726
 30
0.0
 11
6.4672080592
 21
4.4263719516
 31
0.0
  0
LINE
  5
34E
330
1F
100
AcDbEntity
  8
0
  6
Continuous
 62
     7
370
    30
100
AcDbLine
 10
6.4672080592
 20
4.455738899
 30
0.0
 11
6.4672080592
 21
4.461595378
 31
0.0
  0
LINE
  5
34F
330
1F
100
AcDbEntity
  8
0
  6
Continuous
 62
     7
370
    30
100
AcDbLine
 10
6.4875684573
 20
4.4733505022
 30
0.0
 11
6.4875684573
 21
4.4792072745
 31
0.0
  0
LINE
  5
350
330
1F
100
AcDbEntity
  8
0
  6
Continuous
 62
     7
370
    30
100
AcDbLine
 10
6.4672080592
 20
4.461595378
 30
0.0
 11
6.4875684573
 21
4.4733505022
 31
0.0
  0
LINE
  5
351
330
1F
100
AcDbEntity
  8
0
  6
Continuous
 62
     7
370
    30
100
AcDbLine
 10
6.4672080592
 20
4.4909623254
 30
0.0
 11
6.4672080592
 21
4.4968188044
 31
0.0
  0
LINE
  5
352
330
1F
100
AcDbEntity
  8
0
  6
Continuous
 62
     7
370
    30
100
AcDbLine
 10
6.4672080592
 20
4.4968188044
 30
0.0
 11
6.4875684573
 21
4.5085738553
 31
0.0
  0
LINE
  5
353
330
1F
100
AcDbEntity
  8
0
  6
Continuous
 62
     7
370
    30
100
AcDbLine
 10
6.6347389839
 20
4.5690441167
 30
0.0
 11
6.6347389839
 21
4.5631872711
 31
0.0
  0
LINE
  5
354
330
1F
100
AcDbEntity
  8
0
  6
Continuous
 62
     7
370
    30
100
AcDbLine
 10
6.4875684573
 20
4.3735369953
 30
0.0
 11
6.4672080592
 21
4.3852920461
 31
0.0
  0
LINE
  5
355
330
1F
100
AcDbEntity
  8
0
  6
Continuous
 62
     7
370
    30
100
AcDbLine
 10
6.4875684573
 20
4.4087604217
 30
0.0
 11
6.4672080592
 21
4.4205154726
 31
0.0
  0
LINE
  5
356
330
1F
100
AcDbEntity
  8
0
  6
Continuous
 62
     7
370
    30
100
AcDbLine
 10
6.4761942221
 20
4.3258806325
 30
0.0
 11
6.487569264
 21
4.3324479966
 31
0.0
  0
LINE
  5
357
330
1F
100
AcDbEntity
  8
0
  6
Continuous
 62
     7
370
    30
100
AcDbLine
 10
6.4875684573
 20
4.4439838481
 30
0.0
 11
6.4672080592
 21
4.455738899
 31
0.0
  0
LINE
  5
358
330
1F
100
AcDbEntity
  8
0
  6
Continuous
 62
     7
370
    30
100
AcDbLine
 10
6.6550993087
 20
4.5455757412
 30
0.0
 11
6.6347389839
 21
4.5338206903
 31
0.0
  0
LINE
  5
359
330
1F
100
AcDbEntity
  8
0
  6
Continuous
 62
     7
370
    30
100
AcDbLine
 10
6.4672080592
 20
4.3911485251
 30
0.0
 11
6.4875684573
 21
4.4029036493
 31
0.0
  0
LINE
  5
35A
330
1F
100
AcDbEntity
  8
0
  6
Continuous
 62
     7
370
    30
100
AcDbLine
 10
6.4875684573
 20
4.3676802229
 30
0.0
 11
6.4875684573
 21
4.3735369953
 31
0.0
  0
ARC
  5
35B
330
1F
100
AcDbEntity
  8
0
  6
Continuous
 62
     7
370
    30
100
AcDbCircle
 10
6.4086382488
 20
4.3689045117
 30
0.0
 40
0.0199999999999986
100
AcDbArc
 50
127.5815576187
 51
180.0
  0
LINE
  5
35C
330
1F
100
AcDbEntity
  8
0
  6
Continuous
 62
     7
370
    30
100
AcDbLine
 10
4.7375684601
 20
4.5496541274
 30
0.0
 11
4.717208062
 21
4.5614091783
 31
0.0
  0
LINE
  5
35D
330
1F
100
AcDbEntity
  8
0
  6
Continuous
 62
     7
370
    30
100
AcDbLine
 10
4.7375684601
 20
4.5437972817
 30
0.0
 11
4.7375684601
 21
4.5496541274
 31
0.0
  0
LINE
  5
35E
330
1F
100
AcDbEntity
  8
0
  6
Continuous
 62
     7
370
    30
100
AcDbLine
 10
4.7375684601
 20
4.514430701
 30
0.0
 11
4.717208062
 21
4.5261857518
 31
0.0
  0
LINE
  5
35F
330
1F
100
AcDbEntity
  8
0
  6
Continuous
 62
     7
370
    30
100
AcDbLine
 10
4.7375684601
 20
4.5085738553
 30
0.0
 11
4.7375684601
 21
4.514430701
 31
0.0
  0
LINE
  5
360
330
1F
100
AcDbEntity
  8
0
  6
Continuous
 62
     7
370
    30
100
AcDbLine
 10
4.7375684601
 20
4.4439838481
 30
0.0
 11
4.717208062
 21
4.455738899
 31
0.0
  0
LINE
  5
361
330
1F
100
AcDbEntity
  8
0
  6
Continuous
 62
     7
370
    30
100
AcDbLine
 10
4.717208062
 20
4.355925172
 30
0.0
 11
4.7375684601
 21
4.3676802229
 31
0.0
  0
LINE
  5
362
330
1F
100
AcDbEntity
  8
0
  6
Continuous
 62
     7
370
    30
100
AcDbLine
 10
4.7261942249
 20
4.3258806325
 30
0.0
 11
4.7375692668
 21
4.3324479966
 31
0.0
  0
ARC
  5
363
330
1F
100
AcDbEntity
  8
0
  6
Continuous
 62
     7
370
    30
100
AcDbCircle
 10
4.9101711838
 20
4.3290427595
 30
0.0
 40
0.0100000000000086
100
AcDbArc
 50
165.3098749059
 51
203.8403348298
  0
LINE
  5
364
330
1F
100
AcDbEntity
  8
0
  6
Continuous
 62
     7
370
    30
100
AcDbLine
 10
4.9050993115
 20
4.3342351826
 30
0.0
 11
4.9004980646
 21
4.33157864
 31
0.0
  0
LINE
  5
365
330
1F
100
AcDbEntity
  8
0
  6
Continuous
 62
     7
370
    30
100
AcDbLine
 10
4.9050993115
 20
4.3400916616
 30
0.0
 11
4.9050993115
 21
4.3342351826
 31
0.0
  0
LINE
  5
366
330
1F
100
AcDbEntity
  8
0
  6
Continuous
 62
     7
370
    30
100
AcDbLine
 10
4.8847389867
 20
4.3577035582
 30
0.0
 11
4.8847389867
 21
4.3518467858
 31
0.0
  0
LINE
  5
367
330
1F
100
AcDbEntity
  8
0
  6
Continuous
 62
     7
370
    30
100
AcDbLine
 10
4.9050993115
 20
4.369458609
 30
0.0
 11
4.8847389867
 21
4.3577035582
 31
0.0
  0
LINE
  5
368
330
1F
100
AcDbEntity
  8
0
  6
Continuous
 62
     7
370
    30
100
AcDbLine
 10
4.9050993115
 20
4.375315088
 30
0.0
 11
4.9050993115
 21
4.369458609
 31
0.0
  0
LINE
  5
369
330
1F
100
AcDbEntity
  8
0
  6
Continuous
 62
     7
370
    30
100
AcDbLine
 10
4.8847389867
 20
4.3870701389
 30
0.0
 11
4.9050993115
 21
4.375315088
 31
0.0
  0
LINE
  5
36A
330
1F
100
AcDbEntity
  8
0
  6
Continuous
 62
     7
370
    30
100
AcDbLine
 10
4.9050993115
 20
4.4046820355
 30
0.0
 11
4.8847389867
 21
4.3929269846
 31
0.0
  0
LINE
  5
36B
330
1F
100
AcDbEntity
  8
0
  6
Continuous
 62
     7
370
    30
100
AcDbLine
 10
4.9050993115
 20
4.4105385145
 30
0.0
 11
4.9050993115
 21
4.4046820355
 31
0.0
  0
LINE
  5
36C
330
1F
100
AcDbEntity
  8
0
  6
Continuous
 62
     7
370
    30
100
AcDbLine
 10
4.8847389867
 20
4.428150411
 30
0.0
 11
4.8847389867
 21
4.4222935654
 31
0.0
  0
LINE
  5
36D
330
1F
100
AcDbEntity
  8
0
  6
Continuous
 62
     7
370
    30
100
AcDbLine
 10
4.9050993115
 20
4.4457619409
 30
0.0
 11
4.9050993115
 21
4.4399054619
 31
0.0
  0
LINE
  5
36E
330
1F
100
AcDbEntity
  8
0
  6
Continuous
 62
     7
370
    30
100
AcDbLine
 10
4.8847389867
 20
4.4575169918
 30
0.0
 11
4.9050993115
 21
4.4457619409
 31
0.0
  0
LINE
  5
36F
330
1F
100
AcDbEntity
  8
0
  6
Continuous
 62
     7
370
    30
100
AcDbLine
 10
4.8847389867
 20
4.4633738375
 30
0.0
 11
4.8847389867
 21
4.4575169918
 31
0.0
  0
LINE
  5
370
330
1F
100
AcDbEntity
  8
0
  6
Continuous
 62
     7
370
    30
100
AcDbLine
 10
4.9050993115
 20
4.4809853673
 30
0.0
 11
4.9050993115
 21
4.4751288883
 31
0.0
  0
LINE
  5
371
330
1F
100
AcDbEntity
  8
0
  6
Continuous
 62
     7
370
    30
100
AcDbLine
 10
4.8847389867
 20
4.4985972639
 30
0.0
 11
4.8847389867
 21
4.4927404182
 31
0.0
  0
LINE
  5
372
330
1F
100
AcDbEntity
  8
0
  6
Continuous
 62
     7
370
    30
100
AcDbLine
 10
4.9050993115
 20
4.5514322202
 30
0.0
 11
4.9050993115
 21
4.5455757412
 31
0.0
  0
LINE
  5
373
330
1F
100
AcDbEntity
  8
0
  6
Continuous
 62
     7
370
    30
100
AcDbLine
 10
4.8847389867
 20
4.5690441167
 30
0.0
 11
4.8847389867
 21
4.5631872711
 31
0.0
  0
LINE
  5
374
330
1F
100
AcDbEntity
  8
0
  6
Continuous
 62
     7
370
    30
100
AcDbLine
 10
5.0611382289
 20
4.5170207311
 30
0.0
 11
5.0611382289
 21
4.5154317627
 31
0.0
  0
LINE
  5
375
330
1F
100
AcDbEntity
  8
0
  6
Continuous
 62
     7
370
    30
100
AcDbLine
 10
4.9836382575
 20
4.2040207402
 30
0.0
 11
4.638638243
 21
4.2040207402
 31
0.0
  0
LINE
  5
376
330
1F
100
AcDbEntity
  8
0
  6
Continuous
 62
     7
370
    30
100
AcDbLine
 10
4.5611382716
 20
4.5170207311
 30
0.0
 11
4.5611382716
 21
4.5154317627
 31
0.0
  0
ARC
  5
377
330
1F
100
AcDbEntity
  8
0
  6
Continuous
 62
     7
370
    30
100
AcDbCircle
 10
4.5711382488
 20
4.515431758
 30
0.0
 40
0.0099999999999989
100
AcDbArc
 50
180.0
 51
293.2698239585
  0
ARC
  5
378
330
1F
100
AcDbEntity
  8
0
  6
Continuous
 62
     7
370
    30
100
AcDbCircle
 10
4.6031382488
 20
4.4410207373
 30
0.0
 40
0.0710000000000104
100
AcDbArc
 50
307.5815576188
 51
113.2698239585
  0
ARC
  5
379
330
1F
100
AcDbEntity
  8
0
  6
Continuous
 62
     7
370
    30
100
AcDbCircle
 10
4.6586382488
 20
4.3689045117
 30
0.0
 40
0.0199999999999998
100
AcDbArc
 50
127.5815576187
 51
180.0
  0
LINE
  5
37A
330
1F
100
AcDbEntity
  8
0
  6
Continuous
 62
     7
370
    30
100
AcDbLine
 10
4.638638243
 20
4.3689045088
 30
0.0
 11
4.638638243
 21
4.2040207402
 31
0.0
  0
LINE
  5
37B
330
1F
100
AcDbEntity
  8
0
  6
Continuous
 62
     7
370
    30
100
AcDbLine
 10
4.9836382575
 20
4.2040207402
 30
0.0
 11
4.9836382575
 21
4.3689045088
 31
0.0
  0
ARC
  5
37C
330
1F
100
AcDbEntity
  8
0
  6
Continuous
 62
     7
370
    30
100
AcDbCircle
 10
4.9636382488
 20
4.3689045117
 30
0.0
 40
0.0200000000000009
100
AcDbArc
 50
0.0
 51
52.4184423812
  0
ARC
  5
37D
330
1F
100
AcDbEntity
  8
0
  6
Continuous
 62
     7
370
    30
100
AcDbCircle
 10
5.0191382488
 20
4.4410207373
 30
0.0
 40
0.0710000000000076
100
AcDbArc
 50
66.7301760415
 51
232.4184423812
  0
ARC
  5
37E
330
1F
100
AcDbEntity
  8
0
  6
Continuous
 62
     7
370
    30
100
AcDbCircle
 10
5.0511382488
 20
4.515431758
 30
0.0
 40
0.0099999999999909
100
AcDbArc
 50
246.7301760415
 51
0.0
  0
ARC
  5
37F
330
1F
100
AcDbEntity
  8
0
  6
Continuous
 62
     7
370
    30
100
AcDbCircle
 10
4.9991382488
 20
4.5170207373
 30
0.0
 40
0.0619999999999994
100
AcDbArc
 50
360.0
 51
90.0
  0
LINE
  5
380
330
1F
100
AcDbEntity
  8
0
  6
Continuous
 62
     7
370
    30
100
AcDbLine
 10
4.717208062
 20
4.5261857518
 30
0.0
 11
4.717208062
 21
4.5320422309
 31
0.0
  0
LINE
  5
381
330
1F
100
AcDbEntity
  8
0
  6
Continuous
 62
     7
370
    30
100
AcDbLine
 10
4.717208062
 20
4.5614091783
 30
0.0
 11
4.717208062
 21
4.5672656573
 31
0.0
  0
LINE
  5
382
330
1F
100
AcDbEntity
  8
0
  6
Continuous
 62
     7
370
    30
100
AcDbLine
 10
4.8847389867
 20
4.5338206903
 30
0.0
 11
4.8847389867
 21
4.5279638446
 31
0.0
  0
LINE
  5
383
330
1F
100
AcDbEntity
  8
0
  6
Continuous
 62
     7
370
    30
100
AcDbLine
 10
4.9050993115
 20
4.5162087938
 30
0.0
 11
4.9050993115
 21
4.5103523148
 31
0.0
  0
LINE
  5
384
330
1F
100
AcDbEntity
  8
0
  6
Continuous
 62
     7
370
    30
100
AcDbLine
 10
4.8847389867
 20
4.3929269846
 30
0.0
 11
4.8847389867
 21
4.3870701389
 31
0.0
  0
ARC
  5
385
330
1F
100
AcDbEntity
  8
0
  6
Continuous
 62
     7
370
    30
100
AcDbCircle
 10
4.6231382488
 20
4.5170207373
 30
0.0
 40
0.0620000000000003
100
AcDbArc
 50
90.0
 51
180.0
  0
LINE
  5
386
330
1F
100
AcDbEntity
  8
0
  6
Continuous
 62
     7
370
    30
100
AcDbLine
 10
4.7375684601
 20
4.3735369953
 30
0.0
 11
4.717208062
 21
4.3852920461
 31
0.0
  0
LINE
  5
387
330
1F
100
AcDbEntity
  8
0
  6
Continuous
 62
     7
370
    30
100
AcDbLine
 10
4.717208062
 20
4.3911485251
 30
0.0
 11
4.7375684601
 21
4.4029036493
 31
0.0
  0
LINE
  5
388
330
1F
100
AcDbEntity
  8
0
  6
Continuous
 62
     7
370
    30
100
AcDbLine
 10
4.9020189804
 20
4.5790207082
 30
0.0
 11
4.8847389867
 21
4.5690441167
 31
0.0
  0
LINE
  5
389
330
1F
100
AcDbEntity
  8
0
  6
Continuous
 62
     7
370
    30
100
AcDbLine
 10
4.8847389867
 20
4.5631872711
 30
0.0
 11
4.9050993115
 21
4.5514322202
 31
0.0
  0
LINE
  5
38A
330
1F
100
AcDbEntity
  8
0
  6
Continuous
 62
     7
370
    30
100
AcDbLine
 10
4.717208062
 20
4.5672656573
 30
0.0
 11
4.7375684601
 21
4.5790207082
 31
0.0
  0
LINE
  5
38B
330
1F
100
AcDbEntity
  8
0
  6
Continuous
 62
     7
370
    30
100
AcDbLine
 10
4.9050993115
 20
4.5455757412
 30
0.0
 11
4.8847389867
 21
4.5338206903
 31
0.0
  0
LINE
  5
38C
330
1F
100
AcDbEntity
  8
0
  6
Continuous
 62
     7
370
    30
100
AcDbLine
 10
4.8847389867
 20
4.5279638446
 30
0.0
 11
4.9050993115
 21
4.5162087938
 31
0.0
  0
LINE
  5
38D
330
1F
100
AcDbEntity
  8
0
  6
Continuous
 62
     7
370
    30
100
AcDbLine
 10
4.9050993115
 20
4.5103523148
 30
0.0
 11
4.8847389867
 21
4.4985972639
 31
0.0
  0
LINE
  5
38E
330
1F
100
AcDbEntity
  8
0
  6
Continuous
 62
     7
370
    30
100
AcDbLine
 10
4.8847389867
 20
4.4927404182
 30
0.0
 11
4.9050993115
 21
4.4809853673
 31
0.0
  0
LINE
  5
38F
330
1F
100
AcDbEntity
  8
0
  6
Continuous
 62
     7
370
    30
100
AcDbLine
 10
4.9050993115
 20
4.4751288883
 30
0.0
 11
4.8847389867
 21
4.4633738375
 31
0.0
  0
LINE
  5
390
330
1F
100
AcDbEntity
  8
0
  6
Continuous
 62
     7
370
    30
100
AcDbLine
 10
4.9050993115
 20
4.4399054619
 30
0.0
 11
4.8847389867
 21
4.428150411
 31
0.0
  0
LINE
  5
391
330
1F
100
AcDbEntity
  8
0
  6
Continuous
 62
     7
370
    30
100
AcDbLine
 10
4.8847389867
 20
4.4222935654
 30
0.0
 11
4.9050993115
 21
4.4105385145
 31
0.0
  0
LINE
  5
392
330
1F
100
AcDbEntity
  8
0
  6
Continuous
 62
     7
370
    30
100
AcDbLine
 10
4.7375684601
 20
4.4792072745
 30
0.0
 11
4.717208062
 21
4.4909623254
 31
0.0
  0
LINE
  5
393
330
1F
100
AcDbEntity
  8
0
  6
Continuous
 62
     7
370
    30
100
AcDbLine
 10
4.8847389867
 20
4.3518467858
 30
0.0
 11
4.9050993115
 21
4.3400916616
 31
0.0
  0
LINE
  5
394
330
1F
100
AcDbEntity
  8
0
  6
Continuous
 62
     7
370
    30
100
AcDbLine
 10
4.717208062
 20
4.3852920461
 30
0.0
 11
4.717208062
 21
4.3911485251
 31
0.0
  0
ARC
  5
395
330
1F
100
AcDbEntity
  8
0
  6
Continuous
 62
     7
370
    30
100
AcDbCircle
 10
4.8931382488
 20
4.2950207373
 30
0.0
 40
0.0310000000000004
100
AcDbArc
 50
270.0
 51
75.2623825484
  0
LINE
  5
396
330
1F
100
AcDbEntity
  8
0
  6
Continuous
 62
     7
370
    30
100
AcDbLine
 10
4.8931382697
 20
4.2640207204
 30
0.0
 11
4.7291382309
 21
4.2640207204
 31
0.0
  0
ARC
  5
397
330
1F
100
AcDbEntity
  8
0
  6
Continuous
 62
     7
370
    30
100
AcDbCircle
 10
4.7291382488
 20
4.2950207373
 30
0.0
 40
0.0310000000000005
100
AcDbArc
 50
95.4495226951
 51
270.0
  0
LINE
  5
398
330
1F
100
AcDbEntity
  8
0
  6
Continuous
 62
     7
370
    30
100
AcDbLine
 10
4.7375692668
 20
4.3324479966
 30
0.0
 11
4.7375692668
 21
4.3383131288
 31
0.0
  0
LINE
  5
399
330
1F
100
AcDbEntity
  8
0
  6
Continuous
 62
     7
370
    30
100
AcDbLine
 10
4.717208062
 20
4.3500686197
 30
0.0
 11
4.717208062
 21
4.355925172
 31
0.0
  0
LINE
  5
39A
330
1F
100
AcDbEntity
  8
0
  6
Continuous
 62
     7
370
    30
100
AcDbLine
 10
4.7375684601
 20
4.3676802229
 30
0.0
 11
4.7375684601
 21
4.3735369953
 31
0.0
  0
LINE
  5
39B
330
1F
100
AcDbEntity
  8
0
  6
Continuous
 62
     7
370
    30
100
AcDbLine
 10
4.7375684601
 20
4.4029036493
 30
0.0
 11
4.7375684601
 21
4.4087604217
 31
0.0
  0
LINE
  5
39C
330
1F
100
AcDbEntity
  8
0
  6
Continuous
 62
     7
370
    30
100
AcDbLine
 10
4.717208062
 20
4.4205154726
 30
0.0
 11
4.717208062
 21
4.4263719516
 31
0.0
  0
LINE
  5
39D
330
1F
100
AcDbEntity
  8
0
  6
Continuous
 62
     7
370
    30
100
AcDbLine
 10
4.717208062
 20
4.455738899
 30
0.0
 11
4.717208062
 21
4.461595378
 31
0.0
  0
LINE
  5
39E
330
1F
100
AcDbEntity
  8
0
  6
Continuous
 62
     7
370
    30
100
AcDbLine
 10
4.7375684601
 20
4.4381270758
 30
0.0
 11
4.7375684601
 21
4.4439838481
 31
0.0
  0
LINE
  5
39F
330
1F
100
AcDbEntity
  8
0
  6
Continuous
 62
     7
370
    30
100
AcDbLine
 10
4.7375684601
 20
4.4733505022
 30
0.0
 11
4.7375684601
 21
4.4792072745
 31
0.0
  0
LINE
  5
3A0
330
1F
100
AcDbEntity
  8
0
  6
Continuous
 62
     7
370
    30
100
AcDbLine
 10
4.717208062
 20
4.4909623254
 30
0.0
 11
4.717208062
 21
4.4968188044
 31
0.0
  0
LINE
  5
3A1
330
1F
100
AcDbEntity
  8
0
  6
Continuous
 62
     7
370
    30
100
AcDbLine
 10
4.717208062
 20
4.4968188044
 30
0.0
 11
4.7375684601
 21
4.5085738553
 31
0.0
  0
LINE
  5
3A2
330
1F
100
AcDbEntity
  8
0
  6
Continuous
 62
     7
370
    30
100
AcDbLine
 10
4.717208062
 20
4.5320422309
 30
0.0
 11
4.7375684601
 21
4.5437972817
 31
0.0
  0
LINE
  5
3A3
330
1F
100
AcDbEntity
  8
0
  6
Continuous
 62
     7
370
    30
100
AcDbLine
 10
4.717208062
 20
4.4263719516
 30
0.0
 11
4.7375684601
 21
4.4381270758
 31
0.0
  0
LINE
  5
3A4
330
1F
100
AcDbEntity
  8
0
  6
Continuous
 62
     7
370
    30
100
AcDbLine
 10
4.7375692668
 20
4.3383131288
 30
0.0
 11
4.717208062
 21
4.3500686197
 31
0.0
  0
LINE
  5
3A5
330
1F
100
AcDbEntity
  8
0
  6
Continuous
 62
     7
370
    30
100
AcDbLine
 10
4.717208062
 20
4.461595378
 30
0.0
 11
4.7375684601
 21
4.4733505022
 31
0.0
  0
LINE
  5
3A6
330
1F
100
AcDbEntity
  8
0
  6
Continuous
 62
     7
370
    30
100
AcDbLine
 10
4.7375684601
 20
4.4087604217
 30
0.0
 11
4.717208062
 21
4.4205154726
 31
0.0
  0
LINE
  5
3A7
330
1F
100
AcDbEntity
  8
0
  6
Continuous
 62
     7
370
    30
100
AcDbLine
 10
2.9672081382
 20
4.5672656573
 30
0.0
 11
2.987568463
 21
4.5790207082
 31
0.0
  0
LINE
  5
3A8
330
1F
100
AcDbEntity
  8
0
  6
Continuous
 62
     7
370
    30
100
AcDbLine
 10
2.9672081382
 20
4.5614091783
 30
0.0
 11
2.9672081382
 21
4.5672656573
 31
0.0
  0
LINE
  5
3A9
330
1F
100
AcDbEntity
  8
0
  6
Continuous
 62
     7
370
    30
100
AcDbLine
 10
2.987568463
 20
4.5496541274
 30
0.0
 11
2.9672081382
 21
4.5614091783
 31
0.0
  0
LINE
  5
3AA
330
1F
100
AcDbEntity
  8
0
  6
Continuous
 62
     7
370
    30
100
AcDbLine
 10
2.987568463
 20
4.5437972817
 30
0.0
 11
2.987568463
 21
4.5496541274
 31
0.0
  0
LINE
  5
3AB
330
1F
100
AcDbEntity
  8
0
  6
Continuous
 62
     7
370
    30
100
AcDbLine
 10
2.9672081382
 20
4.5320422309
 30
0.0
 11
2.987568463
 21
4.5437972817
 31
0.0
  0
LINE
  5
3AC
330
1F
100
AcDbEntity
  8
0
  6
Continuous
 62
     7
370
    30
100
AcDbLine
 10
2.9672081382
 20
4.5261857518
 30
0.0
 11
2.9672081382
 21
4.5320422309
 31
0.0
  0
LINE
  5
3AD
330
1F
100
AcDbEntity
  8
0
  6
Continuous
 62
     7
370
    30
100
AcDbLine
 10
2.987568463
 20
4.514430701
 30
0.0
 11
2.9672081382
 21
4.5261857518
 31
0.0
  0
LINE
  5
3AE
330
1F
100
AcDbEntity
  8
0
  6
Continuous
 62
     7
370
    30
100
AcDbLine
 10
2.987568463
 20
4.5085738553
 30
0.0
 11
2.987568463
 21
4.514430701
 31
0.0
  0
LINE
  5
3AF
330
1F
100
AcDbEntity
  8
0
  6
Continuous
 62
     7
370
    30
100
AcDbLine
 10
2.9672081382
 20
4.4968188044
 30
0.0
 11
2.987568463
 21
4.5085738553
 31
0.0
  0
LINE
  5
3B0
330
1F
100
AcDbEntity
  8
0
  6
Continuous
 62
     7
370
    30
100
AcDbLine
 10
2.9672081382
 20
4.4909623254
 30
0.0
 11
2.9672081382
 21
4.4968188044
 31
0.0
  0
LINE
  5
3B1
330
1F
100
AcDbEntity
  8
0
  6
Continuous
 62
     7
370
    30
100
AcDbLine
 10
2.987568463
 20
4.4792072745
 30
0.0
 11
2.9672081382
 21
4.4909623254
 31
0.0
  0
LINE
  5
3B2
330
1F
100
AcDbEntity
  8
0
  6
Continuous
 62
     7
370
    30
100
AcDbLine
 10
2.987568463
 20
4.4733505022
 30
0.0
 11
2.987568463
 21
4.4792072745
 31
0.0
  0
LINE
  5
3B3
330
1F
100
AcDbEntity
  8
0
  6
Continuous
 62
     7
370
    30
100
AcDbLine
 10
2.9672081382
 20
4.461595378
 30
0.0
 11
2.987568463
 21
4.4733505022
 31
0.0
  0
LINE
  5
3B4
330
1F
100
AcDbEntity
  8
0
  6
Continuous
 62
     7
370
    30
100
AcDbLine
 10
2.9672081382
 20
4.455738899
 30
0.0
 11
2.9672081382
 21
4.461595378
 31
0.0
  0
LINE
  5
3B5
330
1F
100
AcDbEntity
  8
0
  6
Continuous
 62
     7
370
    30
100
AcDbLine
 10
2.987568463
 20
4.4439838481
 30
0.0
 11
2.9672081382
 21
4.455738899
 31
0.0
  0
LINE
  5
3B6
330
1F
100
AcDbEntity
  8
0
  6
Continuous
 62
     7
370
    30
100
AcDbLine
 10
2.987568463
 20
4.4381270758
 30
0.0
 11
2.987568463
 21
4.4439838481
 31
0.0
  0
LINE
  5
3B7
330
1F
100
AcDbEntity
  8
0
  6
Continuous
 62
     7
370
    30
100
AcDbLine
 10
2.9672081382
 20
4.4263719516
 30
0.0
 11
2.987568463
 21
4.4381270758
 31
0.0
  0
LINE
  5
3B8
330
1F
100
AcDbEntity
  8
0
  6
Continuous
 62
     7
370
    30
100
AcDbLine
 10
2.987568463
 20
4.4087604217
 30
0.0
 11
2.9672081382
 21
4.4205154726
 31
0.0
  0
LINE
  5
3B9
330
1F
100
AcDbEntity
  8
0
  6
Continuous
 62
     7
370
    30
100
AcDbLine
 10
2.987568463
 20
4.4029036493
 30
0.0
 11
2.987568463
 21
4.4087604217
 31
0.0
  0
LINE
  5
3BA
330
1F
100
AcDbEntity
  8
0
  6
Continuous
 62
     7
370
    30
100
AcDbLine
 10
2.9672081382
 20
4.3852920461
 30
0.0
 11
2.9672081382
 21
4.3911485251
 31
0.0
  0
LINE
  5
3BB
330
1F
100
AcDbEntity
  8
0
  6
Continuous
 62
     7
370
    30
100
AcDbLine
 10
2.987568463
 20
4.3676802229
 30
0.0
 11
2.987568463
 21
4.3735369953
 31
0.0
  0
LINE
  5
3BC
330
1F
100
AcDbEntity
  8
0
  6
Continuous
 62
     7
370
    30
100
AcDbLine
 10
2.9672081382
 20
4.355925172
 30
0.0
 11
2.987568463
 21
4.3676802229
 31
0.0
  0
LINE
  5
3BD
330
1F
100
AcDbEntity
  8
0
  6
Continuous
 62
     7
370
    30
100
AcDbLine
 10
2.9672081382
 20
4.3500686197
 30
0.0
 11
2.9672081382
 21
4.355925172
 31
0.0
  0
LINE
  5
3BE
330
1F
100
AcDbEntity
  8
0
  6
Continuous
 62
     7
370
    30
100
AcDbLine
 10
2.9875693429
 20
4.3383131288
 30
0.0
 11
2.9672081382
 21
4.3500686197
 31
0.0
  0
LINE
  5
3BF
330
1F
100
AcDbEntity
  8
0
  6
Continuous
 62
     7
370
    30
100
AcDbLine
 10
2.9875693429
 20
4.3324479966
 30
0.0
 11
2.9875693429
 21
4.3383131288
 31
0.0
  0
LINE
  5
3C0
330
1F
100
AcDbEntity
  8
0
  6
Continuous
 62
     7
370
    30
100
AcDbLine
 10
2.976194301
 20
4.3258806325
 30
0.0
 11
2.9875693429
 21
4.3324479966
 31
0.0
  0
ARC
  5
3C1
330
1F
100
AcDbEntity
  8
0
  6
Continuous
 62
     7
370
    30
100
AcDbCircle
 10
2.9791382488
 20
4.2950207373
 30
0.0
 40
0.0310000000000006
100
AcDbArc
 50
95.4495226951
 51
270.0
  0
LINE
  5
3C2
330
1F
100
AcDbEntity
  8
0
  6
Continuous
 62
     7
370
    30
100
AcDbLine
 10
3.1431383458
 20
4.2640207204
 30
0.0
 11
2.9791381603
 21
4.2640207204
 31
0.0
  0
ARC
  5
3C3
330
1F
100
AcDbEntity
  8
0
  6
Continuous
 62
     7
370
    30
100
AcDbCircle
 10
3.1431382488
 20
4.2950207373
 30
0.0
 40
0.0310000000000007
100
AcDbArc
 50
270.0
 51
75.2623825484
  0
ARC
  5
3C4
330
1F
100
AcDbEntity
  8
0
  6
Continuous
 62
     7
370
    30
100
AcDbCircle
 10
3.1601711838
 20
4.3290427595
 30
0.0
 40
0.0100000000000086
100
AcDbArc
 50
165.3098749059
 51
203.8403348298
  0
LINE
  5
3C5
330
1F
100
AcDbEntity
  8
0
  6
Continuous
 62
     7
370
    30
100
AcDbLine
 10
3.155099461
 20
4.3342351826
 30
0.0
 11
3.1504979941
 21
4.33157864
 31
0.0
  0
LINE
  5
3C6
330
1F
100
AcDbEntity
  8
0
  6
Continuous
 62
     7
370
    30
100
AcDbLine
 10
3.155099461
 20
4.3400916616
 30
0.0
 11
3.155099461
 21
4.3342351826
 31
0.0
  0
LINE
  5
3C7
330
1F
100
AcDbEntity
  8
0
  6
Continuous
 62
     7
370
    30
100
AcDbLine
 10
3.1347388428
 20
4.3518467858
 30
0.0
 11
3.155099461
 21
4.3400916616
 31
0.0
  0
LINE
  5
3C8
330
1F
100
AcDbEntity
  8
0
  6
Continuous
 62
     7
370
    30
100
AcDbLine
 10
3.155099461
 20
4.369458609
 30
0.0
 11
3.1347388428
 21
4.3577035582
 31
0.0
  0
LINE
  5
3C9
330
1F
100
AcDbEntity
  8
0
  6
Continuous
 62
     7
370
    30
100
AcDbLine
 10
3.155099461
 20
4.375315088
 30
0.0
 11
3.155099461
 21
4.369458609
 31
0.0
  0
LINE
  5
3CA
330
1F
100
AcDbEntity
  8
0
  6
Continuous
 62
     7
370
    30
100
AcDbLine
 10
3.1347388428
 20
4.3870701389
 30
0.0
 11
3.155099461
 21
4.375315088
 31
0.0
  0
LINE
  5
3CB
330
1F
100
AcDbEntity
  8
0
  6
Continuous
 62
     7
370
    30
100
AcDbLine
 10
3.1347388428
 20
4.3929269846
 30
0.0
 11
3.1347388428
 21
4.3870701389
 31
0.0
  0
LINE
  5
3CC
330
1F
100
AcDbEntity
  8
0
  6
Continuous
 62
     7
370
    30
100
AcDbLine
 10
3.155099461
 20
4.4046820355
 30
0.0
 11
3.1347388428
 21
4.3929269846
 31
0.0
  0
LINE
  5
3CD
330
1F
100
AcDbEntity
  8
0
  6
Continuous
 62
     7
370
    30
100
AcDbLine
 10
3.1347388428
 20
4.4222935654
 30
0.0
 11
3.155099461
 21
4.4105385145
 31
0.0
  0
LINE
  5
3CE
330
1F
100
AcDbEntity
  8
0
  6
Continuous
 62
     7
370
    30
100
AcDbLine
 10
3.1347388428
 20
4.428150411
 30
0.0
 11
3.1347388428
 21
4.4222935654
 31
0.0
  0
LINE
  5
3CF
330
1F
100
AcDbEntity
  8
0
  6
Continuous
 62
     7
370
    30
100
AcDbLine
 10
3.155099461
 20
4.4457619409
 30
0.0
 11
3.155099461
 21
4.4399054619
 31
0.0
  0
LINE
  5
3D0
330
1F
100
AcDbEntity
  8
0
  6
Continuous
 62
     7
370
    30
100
AcDbLine
 10
3.1347388428
 20
4.4633738375
 30
0.0
 11
3.1347388428
 21
4.4575169918
 31
0.0
  0
LINE
  5
3D1
330
1F
100
AcDbEntity
  8
0
  6
Continuous
 62
     7
370
    30
100
AcDbLine
 10
3.155099461
 20
4.4809853673
 30
0.0
 11
3.155099461
 21
4.4751288883
 31
0.0
  0
LINE
  5
3D2
330
1F
100
AcDbEntity
  8
0
  6
Continuous
 62
     7
370
    30
100
AcDbLine
 10
3.1347388428
 20
4.4985972639
 30
0.0
 11
3.1347388428
 21
4.4927404182
 31
0.0
  0
LINE
  5
3D3
330
1F
100
AcDbEntity
  8
0
  6
Continuous
 62
     7
370
    30
100
AcDbLine
 10
3.155099461
 20
4.5162087938
 30
0.0
 11
3.155099461
 21
4.5103523148
 31
0.0
  0
LINE
  5
3D4
330
1F
100
AcDbEntity
  8
0
  6
Continuous
 62
     7
370
    30
100
AcDbLine
 10
3.1347388428
 20
4.5279638446
 30
0.0
 11
3.155099461
 21
4.5162087938
 31
0.0
  0
LINE
  5
3D5
330
1F
100
AcDbEntity
  8
0
  6
Continuous
 62
     7
370
    30
100
AcDbLine
 10
3.1347388428
 20
4.5338206903
 30
0.0
 11
3.1347388428
 21
4.5279638446
 31
0.0
  0
LINE
  5
3D6
330
1F
100
AcDbEntity
  8
0
  6
Continuous
 62
     7
370
    30
100
AcDbLine
 10
3.155099461
 20
4.5455757412
 30
0.0
 11
3.1347388428
 21
4.5338206903
 31
0.0
  0
LINE
  5
3D7
330
1F
100
AcDbEntity
  8
0
  6
Continuous
 62
     7
370
    30
100
AcDbLine
 10
3.155099461
 20
4.5514322202
 30
0.0
 11
3.155099461
 21
4.5455757412
 31
0.0
  0
LINE
  5
3D8
330
1F
100
AcDbEntity
  8
0
  6
Continuous
 62
     7
370
    30
100
AcDbLine
 10
3.1347388428
 20
4.5631872711
 30
0.0
 11
3.155099461
 21
4.5514322202
 31
0.0
  0
LINE
  5
3D9
330
1F
100
AcDbEntity
  8
0
  6
Continuous
 62
     7
370
    30
100
AcDbLine
 10
3.1520189099
 20
4.5790207082
 30
0.0
 11
3.1347388428
 21
4.5690441167
 31
0.0
  0
ARC
  5
3DA
330
1F
100
AcDbEntity
  8
0
  6
Continuous
 62
     7
370
    30
100
AcDbCircle
 10
3.2491382488
 20
4.5170207373
 30
0.0
 40
0.0619999999999994
100
AcDbArc
 50
360.0
 51
90.0
  0
LINE
  5
3DB
330
1F
100
AcDbEntity
  8
0
  6
Continuous
 62
     7
370
    30
100
AcDbLine
 10
3.3111382317
 20
4.5170207311
 30
0.0
 11
3.3111382317
 21
4.5154317627
 31
0.0
  0
LINE
  5
3DC
330
1F
100
AcDbEntity
  8
0
  6
Continuous
 62
     7
370
    30
100
AcDbLine
 10
3.2336382603
 20
4.2040207402
 30
0.0
 11
2.8886382458
 21
4.2040207402
 31
0.0
  0
LINE
  5
3DD
330
1F
100
AcDbEntity
  8
0
  6
Continuous
 62
     7
370
    30
100
AcDbLine
 10
2.8111381278
 20
4.5170207311
 30
0.0
 11
2.8111381278
 21
4.5154317627
 31
0.0
  0
ARC
  5
3DE
330
1F
100
AcDbEntity
  8
0
  6
Continuous
 62
     7
370
    30
100
AcDbCircle
 10
2.8211382488
 20
4.515431758
 30
0.0
 40
0.0099999999999993
100
AcDbArc
 50
180.0
 51
293.2698239585
  0
ARC
  5
3DF
330
1F
100
AcDbEntity
  8
0
  6
Continuous
 62
     7
370
    30
100
AcDbCircle
 10
2.8531382488
 20
4.4410207373
 30
0.0
 40
0.0710000000000112
100
AcDbArc
 50
307.5815576188
 51
113.2698239585
  0
ARC
  5
3E0
330
1F
100
AcDbEntity
  8
0
  6
Continuous
 62
     7
370
    30
100
AcDbCircle
 10
2.9086382488
 20
4.3689045117
 30
0.0
 40
0.0199999999999988
100
AcDbArc
 50
127.5815576187
 51
180.0
  0
LINE
  5
3E1
330
1F
100
AcDbEntity
  8
0
  6
Continuous
 62
     7
370
    30
100
AcDbLine
 10
2.8886382458
 20
4.3689045088
 30
0.0
 11
2.8886382458
 21
4.2040207402
 31
0.0
  0
LINE
  5
3E2
330
1F
100
AcDbEntity
  8
0
  6
Continuous
 62
     7
370
    30
100
AcDbLine
 10
3.2336382603
 20
4.2040207402
 30
0.0
 11
3.2336382603
 21
4.3689045088
 31
0.0
  0
ARC
  5
3E3
330
1F
100
AcDbEntity
  8
0
  6
Continuous
 62
     7
370
    30
100
AcDbCircle
 10
3.2136382488
 20
4.3689045117
 30
0.0
 40
0.0200000000000004
100
AcDbArc
 50
0.0
 51
52.4184423812
  0
ARC
  5
3E4
330
1F
100
AcDbEntity
  8
0
  6
Continuous
 62
     7
370
    30
100
AcDbCircle
 10
3.2691382488
 20
4.4410207373
 30
0.0
 40
0.0710000000000076
100
AcDbArc
 50
66.7301760415
 51
232.4184423812
  0
ARC
  5
3E5
330
1F
100
AcDbEntity
  8
0
  6
Continuous
 62
     7
370
    30
100
AcDbCircle
 10
3.3011382488
 20
4.515431758
 30
0.0
 40
0.0099999999999899
100
AcDbArc
 50
246.7301760415
 51
0.0
  0
LINE
  5
3E6
330
1F
100
AcDbEntity
  8
0
  6
Continuous
 62
     7
370
    30
100
AcDbLine
 10
3.1347388428
 20
4.5690441167
 30
0.0
 11
3.1347388428
 21
4.5631872711
 31
0.0
  0
LINE
  5
3E7
330
1F
100
AcDbEntity
  8
0
  6
Continuous
 62
     7
370
    30
100
AcDbLine
 10
3.155099461
 20
4.4105385145
 30
0.0
 11
3.155099461
 21
4.4046820355
 31
0.0
  0
ARC
  5
3E8
330
1F
100
AcDbEntity
  8
0
  6
Continuous
 62
     7
370
    30
100
AcDbCircle
 10
2.8731382488
 20
4.5170207373
 30
0.0
 40
0.0619999999999994
100
AcDbArc
 50
90.0
 51
180.0
  0
LINE
  5
3E9
330
1F
100
AcDbEntity
  8
0
  6
Continuous
 62
     7
370
    30
100
AcDbLine
 10
3.1347388428
 20
4.3577035582
 30
0.0
 11
3.1347388428
 21
4.3518467858
 31
0.0
  0
LINE
  5
3EA
330
1F
100
AcDbEntity
  8
0
  6
Continuous
 62
     7
370
    30
100
AcDbLine
 10
2.9672081382
 20
4.3911485251
 30
0.0
 11
2.987568463
 21
4.4029036493
 31
0.0
  0
LINE
  5
3EB
330
1F
100
AcDbEntity
  8
0
  6
Continuous
 62
     7
370
    30
100
AcDbLine
 10
3.155099461
 20
4.5103523148
 30
0.0
 11
3.1347388428
 21
4.4985972639
 31
0.0
  0
LINE
  5
3EC
330
1F
100
AcDbEntity
  8
0
  6
Continuous
 62
     7
370
    30
100
AcDbLine
 10
3.1347388428
 20
4.4927404182
 30
0.0
 11
3.155099461
 21
4.4809853673
 31
0.0
  0
LINE
  5
3ED
330
1F
100
AcDbEntity
  8
0
  6
Continuous
 62
     7
370
    30
100
AcDbLine
 10
3.155099461
 20
4.4751288883
 30
0.0
 11
3.1347388428
 21
4.4633738375
 31
0.0
  0
LINE
  5
3EE
330
1F
100
AcDbEntity
  8
0
  6
Continuous
 62
     7
370
    30
100
AcDbLine
 10
3.1347388428
 20
4.4575169918
 30
0.0
 11
3.155099461
 21
4.4457619409
 31
0.0
  0
LINE
  5
3EF
330
1F
100
AcDbEntity
  8
0
  6
Continuous
 62
     7
370
    30
100
AcDbLine
 10
3.155099461
 20
4.4399054619
 30
0.0
 11
3.1347388428
 21
4.428150411
 31
0.0
  0
LINE
  5
3F0
330
1F
100
AcDbEntity
  8
0
  6
Continuous
 62
     7
370
    30
100
AcDbLine
 10
2.9672081382
 20
4.4205154726
 30
0.0
 11
2.9672081382
 21
4.4263719516
 31
0.0
  0
LINE
  5
3F1
330
1F
100
AcDbEntity
  8
0
  6
Continuous
 62
     7
370
    30
100
AcDbLine
 10
2.987568463
 20
4.3735369953
 30
0.0
 11
2.9672081382
 21
4.3852920461
 31
0.0
  0
LINE
  5
3F2
330
1F
100
AcDbEntity
  8
0
  6
Continuous
 62
     7
370
    30
100
AcDbLine
 10
8.2172081297
 20
4.5672656573
 30
0.0
 11
8.2375684545
 21
4.5790207082
 31
0.0
  0
LINE
  5
3F3
330
1F
100
AcDbEntity
  8
0
  6
Continuous
 62
     7
370
    30
100
AcDbLine
 10
8.2172081297
 20
4.5614091783
 30
0.0
 11
8.2172081297
 21
4.5672656573
 31
0.0
  0
LINE
  5
3F4
330
1F
100
AcDbEntity
  8
0
  6
Continuous
 62
     7
370
    30
100
AcDbLine
 10
8.2375684545
 20
4.5496541274
 30
0.0
 11
8.2172081297
 21
4.5614091783
 31
0.0
  0
LINE
  5
3F5
330
1F
100
AcDbEntity
  8
0
  6
Continuous
 62
     7
370
    30
100
AcDbLine
 10
8.2375684545
 20
4.514430701
 30
0.0
 11
8.2172081297
 21
4.5261857518
 31
0.0
  0
LINE
  5
3F6
330
1F
100
AcDbEntity
  8
0
  6
Continuous
 62
     7
370
    30
100
AcDbLine
 10
8.2172081297
 20
4.4968188044
 30
0.0
 11
8.2375684545
 21
4.5085738553
 31
0.0
  0
LINE
  5
3F7
330
1F
100
AcDbEntity
  8
0
  6
Continuous
 62
     7
370
    30
100
AcDbLine
 10
8.2375684545
 20
4.4792072745
 30
0.0
 11
8.2172081297
 21
4.4909623254
 31
0.0
  0
LINE
  5
3F8
330
1F
100
AcDbEntity
  8
0
  6
Continuous
 62
     7
370
    30
100
AcDbLine
 10
8.2172081297
 20
4.461595378
 30
0.0
 11
8.2375684545
 21
4.4733505022
 31
0.0
  0
LINE
  5
3F9
330
1F
100
AcDbEntity
  8
0
  6
Continuous
 62
     7
370
    30
100
AcDbLine
 10
8.2375684545
 20
4.4439838481
 30
0.0
 11
8.2172081297
 21
4.455738899
 31
0.0
  0
LINE
  5
3FA
330
1F
100
AcDbEntity
  8
0
  6
Continuous
 62
     7
370
    30
100
AcDbLine
 10
8.2375684545
 20
4.4381270758
 30
0.0
 11
8.2375684545
 21
4.4439838481
 31
0.0
  0
LINE
  5
3FB
330
1F
100
AcDbEntity
  8
0
  6
Continuous
 62
     7
370
    30
100
AcDbLine
 10
8.2172081297
 20
4.4263719516
 30
0.0
 11
8.2375684545
 21
4.4381270758
 31
0.0
  0
LINE
  5
3FC
330
1F
100
AcDbEntity
  8
0
  6
Continuous
 62
     7
370
    30
100
AcDbLine
 10
8.2375684545
 20
4.4087604217
 30
0.0
 11
8.2172081297
 21
4.4205154726
 31
0.0
  0
LINE
  5
3FD
330
1F
100
AcDbEntity
  8
0
  6
Continuous
 62
     7
370
    30
100
AcDbLine
 10
8.2172081297
 20
4.3911485251
 30
0.0
 11
8.2375684545
 21
4.4029036493
 31
0.0
  0
LINE
  5
3FE
330
1F
100
AcDbEntity
  8
0
  6
Continuous
 62
     7
370
    30
100
AcDbLine
 10
8.2375684545
 20
4.3735369953
 30
0.0
 11
8.2172081297
 21
4.3852920461
 31
0.0
  0
LINE
  5
3FF
330
1F
100
AcDbEntity
  8
0
  6
Continuous
 62
     7
370
    30
100
AcDbLine
 10
8.2375684545
 20
4.3676802229
 30
0.0
 11
8.2375684545
 21
4.3735369953
 31
0.0
  0
LINE
  5
400
330
1F
100
AcDbEntity
  8
0
  6
Continuous
 62
     7
370
    30
100
AcDbLine
 10
8.2172081297
 20
4.355925172
 30
0.0
 11
8.2375684545
 21
4.3676802229
 31
0.0
  0
LINE
  5
401
330
1F
100
AcDbEntity
  8
0
  6
Continuous
 62
     7
370
    30
100
AcDbLine
 10
8.2172081297
 20
4.3500686197
 30
0.0
 11
8.2172081297
 21
4.355925172
 31
0.0
  0
LINE
  5
402
330
1F
100
AcDbEntity
  8
0
  6
Continuous
 62
     7
370
    30
100
AcDbLine
 10
8.2375693345
 20
4.3383131288
 30
0.0
 11
8.2172081297
 21
4.3500686197
 31
0.0
  0
LINE
  5
403
330
1F
100
AcDbEntity
  8
0
  6
Continuous
 62
     7
370
    30
100
AcDbLine
 10
8.2375693345
 20
4.3324479966
 30
0.0
 11
8.2375693345
 21
4.3383131288
 31
0.0
  0
LINE
  5
404
330
1F
100
AcDbEntity
  8
0
  6
Continuous
 62
     7
370
    30
100
AcDbLine
 10
8.2261942926
 20
4.3258806325
 30
0.0
 11
8.2375693345
 21
4.3324479966
 31
0.0
  0
LINE
  5
405
330
1F
100
AcDbEntity
  8
0
  6
Continuous
 62
     7
370
    30
100
AcDbLine
 10
8.3931383374
 20
4.2640207204
 30
0.0
 11
8.2291381519
 21
4.2640207204
 31
0.0
  0
ARC
  5
406
330
1F
100
AcDbEntity
  8
0
  6
Continuous
 62
     7
370
    30
100
AcDbCircle
 10
8.3931382488
 20
4.2950207373
 30
0.0
 40
0.0310000000000006
100
AcDbArc
 50
270.0
 51
75.2623825484
  0
ARC
  5
407
330
1F
100
AcDbEntity
  8
0
  6
Continuous
 62
     7
370
    30
100
AcDbCircle
 10
8.4101711838
 20
4.3290427595
 30
0.0
 40
0.010000000000008
100
AcDbArc
 50
165.3098749059
 51
203.8403348298
  0
LINE
  5
408
330
1F
100
AcDbEntity
  8
0
  6
Continuous
 62
     7
370
    30
100
AcDbLine
 10
8.4050994525
 20
4.3342351826
 30
0.0
 11
8.4004979857
 21
4.33157864
 31
0.0
  0
LINE
  5
409
330
1F
100
AcDbEntity
  8
0
  6
Continuous
 62
     7
370
    30
100
AcDbLine
 10
8.4050994525
 20
4.3400916616
 30
0.0
 11
8.4050994525
 21
4.3342351826
 31
0.0
  0
LINE
  5
40A
330
1F
100
AcDbEntity
  8
0
  6
Continuous
 62
     7
370
    30
100
AcDbLine
 10
8.3847388344
 20
4.3518467858
 30
0.0
 11
8.4050994525
 21
4.3400916616
 31
0.0
  0
LINE
  5
40B
330
1F
100
AcDbEntity
  8
0
  6
Continuous
 62
     7
370
    30
100
AcDbLine
 10
8.3847388344
 20
4.3577035582
 30
0.0
 11
8.3847388344
 21
4.3518467858
 31
0.0
  0
LINE
  5
40C
330
1F
100
AcDbEntity
  8
0
  6
Continuous
 62
     7
370
    30
100
AcDbLine
 10
8.4050994525
 20
4.375315088
 30
0.0
 11
8.4050994525
 21
4.369458609
 31
0.0
  0
LINE
  5
40D
330
1F
100
AcDbEntity
  8
0
  6
Continuous
 62
     7
370
    30
100
AcDbLine
 10
8.3847388344
 20
4.3870701389
 30
0.0
 11
8.4050994525
 21
4.375315088
 31
0.0
  0
LINE
  5
40E
330
1F
100
AcDbEntity
  8
0
  6
Continuous
 62
     7
370
    30
100
AcDbLine
 10
8.3847388344
 20
4.3929269846
 30
0.0
 11
8.3847388344
 21
4.3870701389
 31
0.0
  0
LINE
  5
40F
330
1F
100
AcDbEntity
  8
0
  6
Continuous
 62
     7
370
    30
100
AcDbLine
 10
8.4050994525
 20
4.4105385145
 30
0.0
 11
8.4050994525
 21
4.4046820355
 31
0.0
  0
LINE
  5
410
330
1F
100
AcDbEntity
  8
0
  6
Continuous
 62
     7
370
    30
100
AcDbLine
 10
8.3847388344
 20
4.428150411
 30
0.0
 11
8.3847388344
 21
4.4222935654
 31
0.0
  0
LINE
  5
411
330
1F
100
AcDbEntity
  8
0
  6
Continuous
 62
     7
370
    30
100
AcDbLine
 10
8.4050994525
 20
4.4457619409
 30
0.0
 11
8.4050994525
 21
4.4399054619
 31
0.0
  0
LINE
  5
412
330
1F
100
AcDbEntity
  8
0
  6
Continuous
 62
     7
370
    30
100
AcDbLine
 10
8.4050994525
 20
4.4809853673
 30
0.0
 11
8.4050994525
 21
4.4751288883
 31
0.0
  0
LINE
  5
413
330
1F
100
AcDbEntity
  8
0
  6
Continuous
 62
     7
370
    30
100
AcDbLine
 10
8.3847388344
 20
4.4985972639
 30
0.0
 11
8.3847388344
 21
4.4927404182
 31
0.0
  0
LINE
  5
414
330
1F
100
AcDbEntity
  8
0
  6
Continuous
 62
     7
370
    30
100
AcDbLine
 10
8.4050994525
 20
4.5162087938
 30
0.0
 11
8.4050994525
 21
4.5103523148
 31
0.0
  0
LINE
  5
415
330
1F
100
AcDbEntity
  8
0
  6
Continuous
 62
     7
370
    30
100
AcDbLine
 10
8.3847388344
 20
4.5279638446
 30
0.0
 11
8.4050994525
 21
4.5162087938
 31
0.0
  0
LINE
  5
416
330
1F
100
AcDbEntity
  8
0
  6
Continuous
 62
     7
370
    30
100
AcDbLine
 10
8.4050994525
 20
4.5455757412
 30
0.0
 11
8.3847388344
 21
4.5338206903
 31
0.0
  0
LINE
  5
417
330
1F
100
AcDbEntity
  8
0
  6
Continuous
 62
     7
370
    30
100
AcDbLine
 10
8.4050994525
 20
4.5514322202
 30
0.0
 11
8.4050994525
 21
4.5455757412
 31
0.0
  0
LINE
  5
418
330
1F
100
AcDbEntity
  8
0
  6
Continuous
 62
     7
370
    30
100
AcDbLine
 10
8.3847388344
 20
4.5631872711
 30
0.0
 11
8.4050994525
 21
4.5514322202
 31
0.0
  0
LINE
  5
419
330
1F
100
AcDbEntity
  8
0
  6
Continuous
 62
     7
370
    30
100
AcDbLine
 10
8.3847388344
 20
4.5690441167
 30
0.0
 11
8.3847388344
 21
4.5631872711
 31
0.0
  0
LINE
  5
41A
330
1F
100
AcDbEntity
  8
0
  6
Continuous
 62
     7
370
    30
100
AcDbLine
 10
8.5611383699
 20
4.5170207311
 30
0.0
 11
8.5611383699
 21
4.5154317627
 31
0.0
  0
LINE
  5
41B
330
1F
100
AcDbEntity
  8
0
  6
Continuous
 62
     7
370
    30
100
AcDbLine
 10
8.4836382519
 20
4.2040207402
 30
0.0
 11
8.1386382374
 21
4.2040207402
 31
0.0
  0
LINE
  5
41C
330
1F
100
AcDbEntity
  8
0
  6
Continuous
 62
     7
370
    30
100
AcDbLine
 10
8.061138266
 20
4.5170207311
 30
0.0
 11
8.061138266
 21
4.5154317627
 31
0.0
  0
ARC
  5
41D
330
1F
100
AcDbEntity
  8
0
  6
Continuous
 62
     7
370
    30
100
AcDbCircle
 10
8.0711382488
 20
4.515431758
 30
0.0
 40
0.0099999999999998
100
AcDbArc
 50
180.0
 51
293.2698239585
  0
ARC
  5
41E
330
1F
100
AcDbEntity
  8
0
  6
Continuous
 62
     7
370
    30
100
AcDbCircle
 10
8.1586382488
 20
4.3689045117
 30
0.0
 40
0.0199999999999993
100
AcDbArc
 50
127.5815576187
 51
180.0
  0
LINE
  5
41F
330
1F
100
AcDbEntity
  8
0
  6
Continuous
 62
     7
370
    30
100
AcDbLine
 10
8.1386382374
 20
4.3689045088
 30
0.0
 11
8.1386382374
 21
4.2040207402
 31
0.0
  0
LINE
  5
420
330
1F
100
AcDbEntity
  8
0
  6
Continuous
 62
     7
370
    30
100
AcDbLine
 10
8.4836382519
 20
4.2040207402
 30
0.0
 11
8.4836382519
 21
4.3689045088
 31
0.0
  0
ARC
  5
421
330
1F
100
AcDbEntity
  8
0
  6
Continuous
 62
     7
370
    30
100
AcDbCircle
 10
8.4636382488
 20
4.3689045117
 30
0.0
 40
0.0199999999999996
100
AcDbArc
 50
360.0
 51
52.4184423813
  0
ARC
  5
422
330
1F
100
AcDbEntity
  8
0
  6
Continuous
 62
     7
370
    30
100
AcDbCircle
 10
8.5191382488
 20
4.4410207373
 30
0.0
 40
0.0710000000000083
100
AcDbArc
 50
66.7301760415
 51
232.4184423812
  0
ARC
  5
423
330
1F
100
AcDbEntity
  8
0
  6
Continuous
 62
     7
370
    30
100
AcDbCircle
 10
8.5511382488
 20
4.515431758
 30
0.0
 40
0.0099999999999901
100
AcDbArc
 50
246.7301760415
 51
0.0
  0
ARC
  5
424
330
1F
100
AcDbEntity
  8
0
  6
Continuous
 62
     7
370
    30
100
AcDbCircle
 10
8.4991382488
 20
4.5170207373
 30
0.0
 40
0.0619999999999994
100
AcDbArc
 50
360.0
 51
90.0
  0
LINE
  5
425
330
1F
100
AcDbEntity
  8
0
  6
Continuous
 62
     7
370
    30
100
AcDbLine
 10
8.2172081297
 20
4.5261857518
 30
0.0
 11
8.2172081297
 21
4.5320422309
 31
0.0
  0
LINE
  5
426
330
1F
100
AcDbEntity
  8
0
  6
Continuous
 62
     7
370
    30
100
AcDbLine
 10
8.2172081297
 20
4.4909623254
 30
0.0
 11
8.2172081297
 21
4.4968188044
 31
0.0
  0
ARC
  5
427
330
1F
100
AcDbEntity
  8
0
  6
Continuous
 62
     7
370
    30
100
AcDbCircle
 10
8.1231382488
 20
4.5170207373
 30
0.0
 40
0.0620000000000003
100
AcDbArc
 50
90.0
 51
180.0
  0
LINE
  5
428
330
1F
100
AcDbEntity
  8
0
  6
Continuous
 62
     7
370
    30
100
AcDbLine
 10
8.2172081297
 20
4.5320422309
 30
0.0
 11
8.2375684545
 21
4.5437972817
 31
0.0
  0
LINE
  5
429
330
1F
100
AcDbEntity
  8
0
  6
Continuous
 62
     7
370
    30
100
AcDbLine
 10
8.2375684545
 20
4.5437972817
 30
0.0
 11
8.2375684545
 21
4.5496541274
 31
0.0
  0
LINE
  5
42A
330
1F
100
AcDbEntity
  8
0
  6
Continuous
 62
     7
370
    30
100
AcDbLine
 10
8.4020189014
 20
4.5790207082
 30
0.0
 11
8.3847388344
 21
4.5690441167
 31
0.0
  0
LINE
  5
42B
330
1F
100
AcDbEntity
  8
0
  6
Continuous
 62
     7
370
    30
100
AcDbLine
 10
8.3847388344
 20
4.4927404182
 30
0.0
 11
8.4050994525
 21
4.4809853673
 31
0.0
  0
LINE
  5
42C
330
1F
100
AcDbEntity
  8
0
  6
Continuous
 62
     7
370
    30
100
AcDbLine
 10
8.2172081297
 20
4.455738899
 30
0.0
 11
8.2172081297
 21
4.461595378
 31
0.0
  0
LINE
  5
42D
330
1F
100
AcDbEntity
  8
0
  6
Continuous
 62
     7
370
    30
100
AcDbLine
 10
8.4050994525
 20
4.4046820355
 30
0.0
 11
8.3847388344
 21
4.3929269846
 31
0.0
  0
LINE
  5
42E
330
1F
100
AcDbEntity
  8
0
  6
Continuous
 62
     7
370
    30
100
AcDbLine
 10
8.2375684545
 20
4.5085738553
 30
0.0
 11
8.2375684545
 21
4.514430701
 31
0.0
  0
LINE
  5
42F
330
1F
100
AcDbEntity
  8
0
  6
Continuous
 62
     7
370
    30
100
AcDbLine
 10
8.4050994525
 20
4.369458609
 30
0.0
 11
8.3847388344
 21
4.3577035582
 31
0.0
  0
LINE
  5
430
330
1F
100
AcDbEntity
  8
0
  6
Continuous
 62
     7
370
    30
100
AcDbLine
 10
8.3847388344
 20
4.4575169918
 30
0.0
 11
8.4050994525
 21
4.4457619409
 31
0.0
  0
LINE
  5
431
330
1F
100
AcDbEntity
  8
0
  6
Continuous
 62
     7
370
    30
100
AcDbLine
 10
8.4050994525
 20
4.4399054619
 30
0.0
 11
8.3847388344
 21
4.428150411
 31
0.0
  0
ARC
  5
432
330
1F
100
AcDbEntity
  8
0
  6
Continuous
 62
     7
370
    30
100
AcDbCircle
 10
8.2291382488
 20
4.2950207373
 30
0.0
 40
0.0310000000000006
100
AcDbArc
 50
95.4495226951
 51
270.0
  0
LINE
  5
433
330
1F
100
AcDbEntity
  8
0
  6
Continuous
 62
     7
370
    30
100
AcDbLine
 10
8.2375684545
 20
4.4733505022
 30
0.0
 11
8.2375684545
 21
4.4792072745
 31
0.0
  0
LINE
  5
434
330
1F
100
AcDbEntity
  8
0
  6
Continuous
 62
     7
370
    30
100
AcDbLine
 10
8.4050994525
 20
4.5103523148
 30
0.0
 11
8.3847388344
 21
4.4985972639
 31
0.0
  0
LINE
  5
435
330
1F
100
AcDbEntity
  8
0
  6
Continuous
 62
     7
370
    30
100
AcDbLine
 10
8.3847388344
 20
4.5338206903
 30
0.0
 11
8.3847388344
 21
4.5279638446
 31
0.0
  0
LINE
  5
436
330
1F
100
AcDbEntity
  8
0
  6
Continuous
 62
     7
370
    30
100
AcDbLine
 10
8.4050994525
 20
4.4751288883
 30
0.0
 11
8.3847388344
 21
4.4633738375
 31
0.0
  0
LINE
  5
437
330
1F
100
AcDbEntity
  8
0
  6
Continuous
 62
     7
370
    30
100
AcDbLine
 10
8.2172081297
 20
4.3852920461
 30
0.0
 11
8.2172081297
 21
4.3911485251
 31
0.0
  0
LINE
  5
438
330
1F
100
AcDbEntity
  8
0
  6
Continuous
 62
     7
370
    30
100
AcDbLine
 10
8.2172081297
 20
4.4205154726
 30
0.0
 11
8.2172081297
 21
4.4263719516
 31
0.0
  0
ARC
  5
439
330
1F
100
AcDbEntity
  8
0
  6
Continuous
 62
     7
370
    30
100
AcDbCircle
 10
8.1031382488
 20
4.4410207373
 30
0.0
 40
0.0710000000000111
100
AcDbArc
 50
307.5815576188
 51
113.2698239585
  0
LINE
  5
43A
330
1F
100
AcDbEntity
  8
0
  6
Continuous
 62
     7
370
    30
100
AcDbLine
 10
8.3847388344
 20
4.4222935654
 30
0.0
 11
8.4050994525
 21
4.4105385145
 31
0.0
  0
LINE
  5
43B
330
1F
100
AcDbEntity
  8
0
  6
Continuous
 62
     7
370
    30
100
AcDbLine
 10
8.2375684545
 20
4.4029036493
 30
0.0
 11
8.2375684545
 21
4.4087604217
 31
0.0
  0
LINE
  5
43C
330
1F
100
AcDbEntity
  8
0
  6
Continuous
 62
     7
370
    30
100
AcDbLine
 10
8.3847388344
 20
4.4633738375
 30
0.0
 11
8.3847388344
 21
4.4575169918
 31
0.0
  0
LINE
  5
43D
330
1F
100
AcDbEntity
  8
0
  6
Continuous
 62
     7
370
    30
100
AcDbLine
 10
3.0091786666
 20
6.7775763836
 30
0.0
 11
2.9661383639
 21
6.7775763836
 31
0.0
  0
LINE
  5
43E
330
1F
100
AcDbEntity
  8
0
  6
Continuous
 62
     7
370
    30
100
AcDbLine
 10
3.1561381423
 20
6.7775763836
 30
0.0
 11
3.0091786666
 21
6.7775763836
 31
0.0
  0
LINE
  5
43F
330
1F
100
AcDbEntity
  8
0
  6
Continuous
 62
     7
370
    30
100
AcDbLine
 10
2.9906381608
 20
6.7634311337
 30
0.0
 11
3.1316383453
 21
6.7634311337
 31
0.0
  0
LINE
  5
440
330
1F
100
AcDbEntity
  8
0
  6
Continuous
 62
     7
370
    30
100
AcDbLine
 10
3.0225785652
 20
6.7917213402
 30
0.0
 11
2.9906381608
 21
6.7917213402
 31
0.0
  0
LINE
  5
441
330
1F
100
AcDbEntity
  8
0
  6
Continuous
 62
     7
370
    30
100
AcDbLine
 10
3.1316383453
 20
6.7917213402
 30
0.0
 11
3.0225785652
 21
6.7917213402
 31
0.0
  0
LINE
  5
442
330
1F
100
AcDbEntity
  8
0
  6
Continuous
 62
     7
370
    30
100
AcDbLine
 10
3.0225785652
 20
6.736165822
 30
0.0
 11
2.9906381608
 21
6.736165822
 31
0.0
  0
LINE
  5
443
330
1F
100
AcDbEntity
  8
0
  6
Continuous
 62
     7
370
    30
100
AcDbLine
 10
3.1316383453
 20
6.736165822
 30
0.0
 11
3.0225785652
 21
6.736165822
 31
0.0
  0
LINE
  5
444
330
1F
100
AcDbEntity
  8
0
  6
Continuous
 62
     7
370
    30
100
AcDbLine
 10
3.0091786666
 20
6.7220208654
 30
0.0
 11
2.9661383639
 21
6.7220208654
 31
0.0
  0
LINE
  5
445
330
1F
100
AcDbEntity
  8
0
  6
Continuous
 62
     7
370
    30
100
AcDbLine
 10
3.1561381423
 20
6.7220208654
 30
0.0
 11
3.0091786666
 21
6.7220208654
 31
0.0
  0
LINE
  5
446
330
1F
100
AcDbEntity
  8
0
  6
Continuous
 62
     7
370
    30
100
AcDbLine
 10
2.9906381608
 20
6.7078756154
 30
0.0
 11
3.1316383453
 21
6.7078756154
 31
0.0
  0
LINE
  5
447
330
1F
100
AcDbEntity
  8
0
  6
Continuous
 62
     7
370
    30
100
AcDbLine
 10
3.0225785652
 20
6.6250547855
 30
0.0
 11
2.9906381608
 21
6.6250547855
 31
0.0
  0
LINE
  5
448
330
1F
100
AcDbEntity
  8
0
  6
Continuous
 62
     7
370
    30
100
AcDbLine
 10
3.1316383453
 20
6.6250547855
 30
0.0
 11
3.0225785652
 21
6.6250547855
 31
0.0
  0
LINE
  5
449
330
1F
100
AcDbEntity
  8
0
  6
Continuous
 62
     7
370
    30
100
AcDbLine
 10
3.0091786666
 20
6.6109095356
 30
0.0
 11
2.9661383639
 21
6.6109095356
 31
0.0
  0
LINE
  5
44A
330
1F
100
AcDbEntity
  8
0
  6
Continuous
 62
     7
370
    30
100
AcDbLine
 10
3.1561381423
 20
6.6109095356
 30
0.0
 11
3.0091786666
 21
6.6109095356
 31
0.0
  0
LINE
  5
44B
330
1F
100
AcDbEntity
  8
0
  6
Continuous
 62
     7
370
    30
100
AcDbLine
 10
3.0091786666
 20
6.6664650538
 30
0.0
 11
2.9661383639
 21
6.6664650538
 31
0.0
  0
LINE
  5
44C
330
1F
100
AcDbEntity
  8
0
  6
Continuous
 62
     7
370
    30
100
AcDbLine
 10
3.1561381423
 20
6.6664650538
 30
0.0
 11
3.0091786666
 21
6.6664650538
 31
0.0
  0
LINE
  5
44D
330
1F
100
AcDbEntity
  8
0
  6
Continuous
 62
     7
370
    30
100
AcDbLine
 10
2.9906381608
 20
6.6523200972
 30
0.0
 11
3.1316383453
 21
6.6523200972
 31
0.0
  0
LINE
  5
44E
330
1F
100
AcDbEntity
  8
0
  6
Continuous
 62
     7
370
    30
100
AcDbLine
 10
2.9906381608
 20
6.596764579
 30
0.0
 11
3.1316383453
 21
6.596764579
 31
0.0
  0
LINE
  5
44F
330
1F
100
AcDbEntity
  8
0
  6
Continuous
 62
     7
370
    30
100
AcDbLine
 10
3.0225785652
 20
6.6806103037
 30
0.0
 11
2.9906381608
 21
6.6806103037
 31
0.0
  0
LINE
  5
450
330
1F
100
AcDbEntity
  8
0
  6
Continuous
 62
     7
370
    30
100
AcDbLine
 10
3.1316383453
 20
6.6806103037
 30
0.0
 11
3.0225785652
 21
6.6806103037
 31
0.0
  0
LINE
  5
451
330
1F
100
AcDbEntity
  8
0
  6
Continuous
 62
     7
370
    30
100
AcDbLine
 10
3.0091786666
 20
6.5553540174
 30
0.0
 11
2.9661383639
 21
6.5553540174
 31
0.0
  0
LINE
  5
452
330
1F
100
AcDbEntity
  8
0
  6
Continuous
 62
     7
370
    30
100
AcDbLine
 10
3.1561381423
 20
6.5553540174
 30
0.0
 11
3.0091786666
 21
6.5553540174
 31
0.0
  0
LINE
  5
453
330
1F
100
AcDbEntity
  8
0
  6
Continuous
 62
     7
370
    30
100
AcDbLine
 10
2.9906381608
 20
6.5412090608
 30
0.0
 11
3.1316383453
 21
6.5412090608
 31
0.0
  0
LINE
  5
454
330
1F
100
AcDbEntity
  8
0
  6
Continuous
 62
     7
370
    30
100
AcDbLine
 10
3.0225785652
 20
6.5694992673
 30
0.0
 11
2.9906381608
 21
6.5694992673
 31
0.0
  0
LINE
  5
455
330
1F
100
AcDbEntity
  8
0
  6
Continuous
 62
     7
370
    30
100
AcDbLine
 10
3.1316383453
 20
6.5694992673
 30
0.0
 11
3.0225785652
 21
6.5694992673
 31
0.0
  0
LINE
  5
456
330
1F
100
AcDbEntity
  8
0
  6
Continuous
 62
     7
370
    30
100
AcDbLine
 10
3.0091786666
 20
6.4997984992
 30
0.0
 11
2.9661383639
 21
6.4997984992
 31
0.0
  0
LINE
  5
457
330
1F
100
AcDbEntity
  8
0
  6
Continuous
 62
     7
370
    30
100
AcDbLine
 10
3.1561381423
 20
6.4997984992
 30
0.0
 11
3.0091786666
 21
6.4997984992
 31
0.0
  0
LINE
  5
458
330
1F
100
AcDbEntity
  8
0
  6
Continuous
 62
     7
370
    30
100
AcDbLine
 10
2.9906381608
 20
6.4856535426
 30
0.0
 11
3.1316383453
 21
6.4856535426
 31
0.0
  0
LINE
  5
459
330
1F
100
AcDbEntity
  8
0
  6
Continuous
 62
     7
370
    30
100
AcDbLine
 10
3.0225785652
 20
6.4583879375
 30
0.0
 11
2.9906381608
 21
6.4583879375
 31
0.0
  0
LINE
  5
45A
330
1F
100
AcDbEntity
  8
0
  6
Continuous
 62
     7
370
    30
100
AcDbLine
 10
3.1316383453
 20
6.4583879375
 30
0.0
 11
3.0225785652
 21
6.4583879375
 31
0.0
  0
LINE
  5
45B
330
1F
100
AcDbEntity
  8
0
  6
Continuous
 62
     7
370
    30
100
AcDbLine
 10
3.0091786666
 20
6.444242981
 30
0.0
 11
2.9661383639
 21
6.444242981
 31
0.0
  0
LINE
  5
45C
330
1F
100
AcDbEntity
  8
0
  6
Continuous
 62
     7
370
    30
100
AcDbLine
 10
3.1561381423
 20
6.444242981
 30
0.0
 11
3.0091786666
 21
6.444242981
 31
0.0
  0
LINE
  5
45D
330
1F
100
AcDbEntity
  8
0
  6
Continuous
 62
     7
370
    30
100
AcDbLine
 10
3.0225785652
 20
6.5139434558
 30
0.0
 11
2.9906381608
 21
6.5139434558
 31
0.0
  0
LINE
  5
45E
330
1F
100
AcDbEntity
  8
0
  6
Continuous
 62
     7
370
    30
100
AcDbLine
 10
3.1316383453
 20
6.5139434558
 30
0.0
 11
3.0225785652
 21
6.5139434558
 31
0.0
  0
LINE
  5
45F
330
1F
100
AcDbEntity
  8
0
  6
Continuous
 62
     7
370
    30
100
AcDbLine
 10
2.9906381608
 20
6.4300980244
 30
0.0
 11
3.1316383453
 21
6.4300980244
 31
0.0
  0
LINE
  5
460
330
1F
100
AcDbEntity
  8
0
  6
Continuous
 62
     7
370
    30
100
AcDbLine
 10
3.0091786666
 20
6.3886874627
 30
0.0
 11
2.9661383639
 21
6.3886874627
 31
0.0
  0
LINE
  5
461
330
1F
100
AcDbEntity
  8
0
  6
Continuous
 62
     7
370
    30
100
AcDbLine
 10
3.1561381423
 20
6.3886874627
 30
0.0
 11
3.0091786666
 21
6.3886874627
 31
0.0
  0
LINE
  5
462
330
1F
100
AcDbEntity
  8
0
  6
Continuous
 62
     7
370
    30
100
AcDbLine
 10
2.9906381608
 20
6.3745422128
 30
0.0
 11
3.1316383453
 21
6.3745422128
 31
0.0
  0
LINE
  5
463
330
1F
100
AcDbEntity
  8
0
  6
Continuous
 62
     7
370
    30
100
AcDbLine
 10
3.0225785652
 20
6.4028324193
 30
0.0
 11
2.9906381608
 21
6.4028324193
 31
0.0
  0
LINE
  5
464
330
1F
100
AcDbEntity
  8
0
  6
Continuous
 62
     7
370
    30
100
AcDbLine
 10
3.1316383453
 20
6.4028324193
 30
0.0
 11
3.0225785652
 21
6.4028324193
 31
0.0
  0
LINE
  5
465
330
1F
100
AcDbEntity
  8
0
  6
Continuous
 62
     7
370
    30
100
AcDbLine
 10
3.0225785652
 20
6.3472769011
 30
0.0
 11
2.9906381608
 21
6.3472769011
 31
0.0
  0
LINE
  5
466
330
1F
100
AcDbEntity
  8
0
  6
Continuous
 62
     7
370
    30
100
AcDbLine
 10
3.1316383453
 20
6.3472769011
 30
0.0
 11
3.0225785652
 21
6.3472769011
 31
0.0
  0
LINE
  5
467
330
1F
100
AcDbEntity
  8
0
  6
Continuous
 62
     7
370
    30
100
AcDbLine
 10
3.0091786666
 20
6.3331319445
 30
0.0
 11
2.9661383639
 21
6.3331319445
 31
0.0
  0
LINE
  5
468
330
1F
100
AcDbEntity
  8
0
  6
Continuous
 62
     7
370
    30
100
AcDbLine
 10
3.1561381423
 20
6.3331319445
 30
0.0
 11
3.0091786666
 21
6.3331319445
 31
0.0
  0
LINE
  5
469
330
1F
100
AcDbEntity
  8
0
  6
Continuous
 62
     7
370
    30
100
AcDbLine
 10
2.9906381608
 20
6.3189866946
 30
0.0
 11
3.1316383453
 21
6.3189866946
 31
0.0
  0
LINE
  5
46A
330
1F
100
AcDbEntity
  8
0
  6
Continuous
 62
     7
370
    30
100
AcDbLine
 10
3.0091786666
 20
6.2775764263
 30
0.0
 11
2.9661383639
 21
6.2775764263
 31
0.0
  0
LINE
  5
46B
330
1F
100
AcDbEntity
  8
0
  6
Continuous
 62
     7
370
    30
100
AcDbLine
 10
3.1561381423
 20
6.2775764263
 30
0.0
 11
3.0091786666
 21
6.2775764263
 31
0.0
  0
LINE
  5
46C
330
1F
100
AcDbEntity
  8
0
  6
Continuous
 62
     7
370
    30
100
AcDbLine
 10
2.9906381608
 20
6.2634311764
 30
0.0
 11
3.1316383453
 21
6.2634311764
 31
0.0
  0
LINE
  5
46D
330
1F
100
AcDbEntity
  8
0
  6
Continuous
 62
     7
370
    30
100
AcDbLine
 10
3.0225785652
 20
6.2361658647
 30
0.0
 11
2.9906381608
 21
6.2361658647
 31
0.0
  0
LINE
  5
46E
330
1F
100
AcDbEntity
  8
0
  6
Continuous
 62
     7
370
    30
100
AcDbLine
 10
3.1316383453
 20
6.2361658647
 30
0.0
 11
3.0225785652
 21
6.2361658647
 31
0.0
  0
LINE
  5
46F
330
1F
100
AcDbEntity
  8
0
  6
Continuous
 62
     7
370
    30
100
AcDbLine
 10
3.0091786666
 20
6.2220206148
 30
0.0
 11
2.9661383639
 21
6.2220206148
 31
0.0
  0
LINE
  5
470
330
1F
100
AcDbEntity
  8
0
  6
Continuous
 62
     7
370
    30
100
AcDbLine
 10
3.1561381423
 20
6.2220206148
 30
0.0
 11
3.0091786666
 21
6.2220206148
 31
0.0
  0
LINE
  5
471
330
1F
100
AcDbEntity
  8
0
  6
Continuous
 62
     7
370
    30
100
AcDbLine
 10
2.9906381608
 20
6.2078756582
 30
0.0
 11
3.1316383453
 21
6.2078756582
 31
0.0
  0
LINE
  5
472
330
1F
100
AcDbEntity
  8
0
  6
Continuous
 62
     7
370
    30
100
AcDbLine
 10
3.0225785652
 20
6.2917213829
 30
0.0
 11
2.9906381608
 21
6.2917213829
 31
0.0
  0
LINE
  5
473
330
1F
100
AcDbEntity
  8
0
  6
Continuous
 62
     7
370
    30
100
AcDbLine
 10
3.1316383453
 20
6.2917213829
 30
0.0
 11
3.0225785652
 21
6.2917213829
 31
0.0
  0
LINE
  5
474
330
1F
100
AcDbEntity
  8
0
  6
Continuous
 62
     7
370
    30
100
AcDbLine
 10
3.0225785652
 20
6.1806103465
 30
0.0
 11
2.9906381608
 21
6.1806103465
 31
0.0
  0
LINE
  5
475
330
1F
100
AcDbEntity
  8
0
  6
Continuous
 62
     7
370
    30
100
AcDbLine
 10
3.1316383453
 20
6.1806103465
 30
0.0
 11
3.0225785652
 21
6.1806103465
 31
0.0
  0
LINE
  5
476
330
1F
100
AcDbEntity
  8
0
  6
Continuous
 62
     7
370
    30
100
AcDbLine
 10
3.0091786666
 20
6.1664650965
 30
0.0
 11
2.9661383639
 21
6.1664650965
 31
0.0
  0
LINE
  5
477
330
1F
100
AcDbEntity
  8
0
  6
Continuous
 62
     7
370
    30
100
AcDbLine
 10
3.1561381423
 20
6.1664650965
 30
0.0
 11
3.0091786666
 21
6.1664650965
 31
0.0
  0
LINE
  5
478
330
1F
100
AcDbEntity
  8
0
  6
Continuous
 62
     7
370
    30
100
AcDbLine
 10
2.9906381608
 20
6.1523201399
 30
0.0
 11
3.1316383453
 21
6.1523201399
 31
0.0
  0
LINE
  5
479
330
1F
100
AcDbEntity
  8
0
  6
Continuous
 62
     7
370
    30
100
AcDbLine
 10
3.0225785652
 20
6.0694990167
 30
0.0
 11
2.9906381608
 21
6.0694990167
 31
0.0
  0
LINE
  5
47A
330
1F
100
AcDbEntity
  8
0
  6
Continuous
 62
     7
370
    30
100
AcDbLine
 10
3.1316383453
 20
6.0694990167
 30
0.0
 11
3.0225785652
 21
6.0694990167
 31
0.0
  0
LINE
  5
47B
330
1F
100
AcDbEntity
  8
0
  6
Continuous
 62
     7
370
    30
100
AcDbLine
 10
3.0091786666
 20
6.0553540601
 30
0.0
 11
2.9661383639
 21
6.0553540601
 31
0.0
  0
LINE
  5
47C
330
1F
100
AcDbEntity
  8
0
  6
Continuous
 62
     7
370
    30
100
AcDbLine
 10
3.1561381423
 20
6.0553540601
 30
0.0
 11
3.0091786666
 21
6.0553540601
 31
0.0
  0
LINE
  5
47D
330
1F
100
AcDbEntity
  8
0
  6
Continuous
 62
     7
370
    30
100
AcDbLine
 10
3.0225785652
 20
6.1250548282
 30
0.0
 11
2.9906381608
 21
6.1250548282
 31
0.0
  0
LINE
  5
47E
330
1F
100
AcDbEntity
  8
0
  6
Continuous
 62
     7
370
    30
100
AcDbLine
 10
3.1316383453
 20
6.1250548282
 30
0.0
 11
3.0225785652
 21
6.1250548282
 31
0.0
  0
LINE
  5
47F
330
1F
100
AcDbEntity
  8
0
  6
Continuous
 62
     7
370
    30
100
AcDbLine
 10
3.0091786666
 20
6.1109095783
 30
0.0
 11
2.9661383639
 21
6.1109095783
 31
0.0
  0
LINE
  5
480
330
1F
100
AcDbEntity
  8
0
  6
Continuous
 62
     7
370
    30
100
AcDbLine
 10
3.1561381423
 20
6.1109095783
 30
0.0
 11
3.0091786666
 21
6.1109095783
 31
0.0
  0
LINE
  5
481
330
1F
100
AcDbEntity
  8
0
  6
Continuous
 62
     7
370
    30
100
AcDbLine
 10
2.9906381608
 20
6.0412091035
 30
0.0
 11
3.1316383453
 21
6.0412091035
 31
0.0
  0
LINE
  5
482
330
1F
100
AcDbEntity
  8
0
  6
Continuous
 62
     7
370
    30
100
AcDbLine
 10
3.0225785652
 20
6.0139434985
 30
0.0
 11
2.9906381608
 21
6.0139434985
 31
0.0
  0
LINE
  5
483
330
1F
100
AcDbEntity
  8
0
  6
Continuous
 62
     7
370
    30
100
AcDbLine
 10
3.1316383453
 20
6.0139434985
 30
0.0
 11
3.0225785652
 21
6.0139434985
 31
0.0
  0
LINE
  5
484
330
1F
100
AcDbEntity
  8
0
  6
Continuous
 62
     7
370
    30
100
AcDbLine
 10
3.0091786666
 20
5.9997985419
 30
0.0
 11
2.9661383639
 21
5.9997985419
 31
0.0
  0
LINE
  5
485
330
1F
100
AcDbEntity
  8
0
  6
Continuous
 62
     7
370
    30
100
AcDbLine
 10
3.1561381423
 20
5.9997985419
 30
0.0
 11
3.0091786666
 21
5.9997985419
 31
0.0
  0
LINE
  5
486
330
1F
100
AcDbEntity
  8
0
  6
Continuous
 62
     7
370
    30
100
AcDbLine
 10
2.9906381608
 20
6.0967646217
 30
0.0
 11
3.1316383453
 21
6.0967646217
 31
0.0
  0
LINE
  5
487
330
1F
100
AcDbEntity
  8
0
  6
Continuous
 62
     7
370
    30
100
AcDbLine
 10
2.9906381608
 20
5.985653292
 30
0.0
 11
3.1316383453
 21
5.985653292
 31
0.0
  0
LINE
  5
488
330
1F
100
AcDbEntity
  8
0
  6
Continuous
 62
     7
370
    30
100
AcDbLine
 10
3.0225785652
 20
5.902832462
 30
0.0
 11
2.9906381608
 21
5.902832462
 31
0.0
  0
LINE
  5
489
330
1F
100
AcDbEntity
  8
0
  6
Continuous
 62
     7
370
    30
100
AcDbLine
 10
3.1316383453
 20
5.902832462
 30
0.0
 11
3.0225785652
 21
5.902832462
 31
0.0
  0
LINE
  5
48A
330
1F
100
AcDbEntity
  8
0
  6
Continuous
 62
     7
370
    30
100
AcDbLine
 10
3.0091786666
 20
5.8886875054
 30
0.0
 11
2.9661383639
 21
5.8886875054
 31
0.0
  0
LINE
  5
48B
330
1F
100
AcDbEntity
  8
0
  6
Continuous
 62
     7
370
    30
100
AcDbLine
 10
3.1561381423
 20
5.8886875054
 30
0.0
 11
3.0091786666
 21
5.8886875054
 31
0.0
  0
LINE
  5
48C
330
1F
100
AcDbEntity
  8
0
  6
Continuous
 62
     7
370
    30
100
AcDbLine
 10
3.0225785652
 20
5.9583879803
 30
0.0
 11
2.9906381608
 21
5.9583879803
 31
0.0
  0
LINE
  5
48D
330
1F
100
AcDbEntity
  8
0
  6
Continuous
 62
     7
370
    30
100
AcDbLine
 10
3.1316383453
 20
5.9583879803
 30
0.0
 11
3.0225785652
 21
5.9583879803
 31
0.0
  0
LINE
  5
48E
330
1F
100
AcDbEntity
  8
0
  6
Continuous
 62
     7
370
    30
100
AcDbLine
 10
3.0091786666
 20
5.9442430237
 30
0.0
 11
2.9661383639
 21
5.9442430237
 31
0.0
  0
LINE
  5
48F
330
1F
100
AcDbEntity
  8
0
  6
Continuous
 62
     7
370
    30
100
AcDbLine
 10
3.1561381423
 20
5.9442430237
 30
0.0
 11
3.0091786666
 21
5.9442430237
 31
0.0
  0
LINE
  5
490
330
1F
100
AcDbEntity
  8
0
  6
Continuous
 62
     7
370
    30
100
AcDbLine
 10
2.9906381608
 20
5.8745422555
 30
0.0
 11
3.1316383453
 21
5.8745422555
 31
0.0
  0
LINE
  5
491
330
1F
100
AcDbEntity
  8
0
  6
Continuous
 62
     7
370
    30
100
AcDbLine
 10
2.9906381608
 20
5.9300977737
 30
0.0
 11
3.1316383453
 21
5.9300977737
 31
0.0
  0
LINE
  5
492
330
1F
100
AcDbEntity
  8
0
  6
Continuous
 62
     7
370
    30
100
AcDbLine
 10
3.0091786666
 20
5.8331318406
 30
0.0
 11
2.9661383639
 21
5.8331318406
 31
0.0
  0
LINE
  5
493
330
1F
100
AcDbEntity
  8
0
  6
Continuous
 62
     7
370
    30
100
AcDbLine
 10
3.1561381423
 20
5.8331318406
 30
0.0
 11
3.0091786666
 21
5.8331318406
 31
0.0
  0
LINE
  5
494
330
1F
100
AcDbEntity
  8
0
  6
Continuous
 62
     7
370
    30
100
AcDbLine
 10
2.9906381608
 20
5.8189867373
 30
0.0
 11
3.1316383453
 21
5.8189867373
 31
0.0
  0
LINE
  5
495
330
1F
100
AcDbEntity
  8
0
  6
Continuous
 62
     7
370
    30
100
AcDbLine
 10
3.0225785652
 20
5.8472769438
 30
0.0
 11
2.9906381608
 21
5.8472769438
 31
0.0
  0
LINE
  5
496
330
1F
100
AcDbEntity
  8
0
  6
Continuous
 62
     7
370
    30
100
AcDbLine
 10
3.1316383453
 20
5.8472769438
 30
0.0
 11
3.0225785652
 21
5.8472769438
 31
0.0
  0
LINE
  5
497
330
1F
100
AcDbEntity
  8
0
  6
Continuous
 62
     7
370
    30
100
AcDbLine
 10
3.0225785652
 20
5.7917214256
 30
0.0
 11
2.9906381608
 21
5.7917214256
 31
0.0
  0
LINE
  5
498
330
1F
100
AcDbEntity
  8
0
  6
Continuous
 62
     7
370
    30
100
AcDbLine
 10
3.1316383453
 20
5.7917214256
 30
0.0
 11
3.0225785652
 21
5.7917214256
 31
0.0
  0
LINE
  5
499
330
1F
100
AcDbEntity
  8
0
  6
Continuous
 62
     7
370
    30
100
AcDbLine
 10
3.0091786666
 20
5.7775763223
 30
0.0
 11
2.9661383639
 21
5.7775763223
 31
0.0
  0
LINE
  5
49A
330
1F
100
AcDbEntity
  8
0
  6
Continuous
 62
     7
370
    30
100
AcDbLine
 10
3.1561381423
 20
5.7775763223
 30
0.0
 11
3.0091786666
 21
5.7775763223
 31
0.0
  0
LINE
  5
49B
330
1F
100
AcDbEntity
  8
0
  6
Continuous
 62
     7
370
    30
100
AcDbLine
 10
2.9906381608
 20
5.7634312191
 30
0.0
 11
3.1316383453
 21
5.7634312191
 31
0.0
  0
LINE
  5
49C
330
1F
100
AcDbEntity
  8
0
  6
Continuous
 62
     7
370
    30
100
AcDbLine
 10
3.0091786666
 20
5.7220208041
 30
0.0
 11
2.9661383639
 21
5.7220208041
 31
0.0
  0
LINE
  5
49D
330
1F
100
AcDbEntity
  8
0
  6
Continuous
 62
     7
370
    30
100
AcDbLine
 10
3.1561381423
 20
5.7220208041
 30
0.0
 11
3.0091786666
 21
5.7220208041
 31
0.0
  0
LINE
  5
49E
330
1F
100
AcDbEntity
  8
0
  6
Continuous
 62
     7
370
    30
100
AcDbLine
 10
2.9906381608
 20
5.7078757009
 30
0.0
 11
3.1316383453
 21
5.7078757009
 31
0.0
  0
LINE
  5
49F
330
1F
100
AcDbEntity
  8
0
  6
Continuous
 62
     7
370
    30
100
AcDbLine
 10
3.0091786666
 20
5.6664651392
 30
0.0
 11
2.9661383639
 21
5.6664651392
 31
0.0
  0
LINE
  5
4A0
330
1F
100
AcDbEntity
  8
0
  6
Continuous
 62
     7
370
    30
100
AcDbLine
 10
3.1561381423
 20
5.6664651392
 30
0.0
 11
3.0091786666
 21
5.6664651392
 31
0.0
  0
LINE
  5
4A1
330
1F
100
AcDbEntity
  8
0
  6
Continuous
 62
     7
370
    30
100
AcDbLine
 10
2.9906381608
 20
5.652320036
 30
0.0
 11
3.1316383453
 21
5.652320036
 31
0.0
  0
LINE
  5
4A2
330
1F
100
AcDbEntity
  8
0
  6
Continuous
 62
     7
370
    30
100
AcDbLine
 10
3.0225785652
 20
5.6806102425
 30
0.0
 11
2.9906381608
 21
5.6806102425
 31
0.0
  0
LINE
  5
4A3
330
1F
100
AcDbEntity
  8
0
  6
Continuous
 62
     7
370
    30
100
AcDbLine
 10
3.1316383453
 20
5.6806102425
 30
0.0
 11
3.0225785652
 21
5.6806102425
 31
0.0
  0
LINE
  5
4A4
330
1F
100
AcDbEntity
  8
0
  6
Continuous
 62
     7
370
    30
100
AcDbLine
 10
3.0225785652
 20
5.7361657607
 30
0.0
 11
2.9906381608
 21
5.7361657607
 31
0.0
  0
LINE
  5
4A5
330
1F
100
AcDbEntity
  8
0
  6
Continuous
 62
     7
370
    30
100
AcDbLine
 10
3.1316383453
 20
5.7361657607
 30
0.0
 11
3.0225785652
 21
5.7361657607
 31
0.0
  0
LINE
  5
4A6
330
1F
100
AcDbEntity
  8
0
  6
Continuous
 62
     7
370
    30
100
AcDbLine
 10
3.0091786666
 20
5.610909621
 30
0.0
 11
2.9661383639
 21
5.610909621
 31
0.0
  0
LINE
  5
4A7
330
1F
100
AcDbEntity
  8
0
  6
Continuous
 62
     7
370
    30
100
AcDbLine
 10
3.1561381423
 20
5.610909621
 30
0.0
 11
3.0091786666
 21
5.610909621
 31
0.0
  0
LINE
  5
4A8
330
1F
100
AcDbEntity
  8
0
  6
Continuous
 62
     7
370
    30
100
AcDbLine
 10
2.9906381608
 20
5.5967645178
 30
0.0
 11
3.1316383453
 21
5.5967645178
 31
0.0
  0
LINE
  5
4A9
330
1F
100
AcDbEntity
  8
0
  6
Continuous
 62
     7
370
    30
100
AcDbLine
 10
3.0225785652
 20
5.6250547243
 30
0.0
 11
2.9906381608
 21
5.6250547243
 31
0.0
  0
LINE
  5
4AA
330
1F
100
AcDbEntity
  8
0
  6
Continuous
 62
     7
370
    30
100
AcDbLine
 10
3.1316383453
 20
5.6250547243
 30
0.0
 11
3.0225785652
 21
5.6250547243
 31
0.0
  0
LINE
  5
4AB
330
1F
100
AcDbEntity
  8
0
  6
Continuous
 62
     7
370
    30
100
AcDbLine
 10
3.0225785652
 20
5.5139435412
 30
0.0
 11
2.9906381608
 21
5.5139435412
 31
0.0
  0
LINE
  5
4AC
330
1F
100
AcDbEntity
  8
0
  6
Continuous
 62
     7
370
    30
100
AcDbLine
 10
3.1316383453
 20
5.5139435412
 30
0.0
 11
3.0225785652
 21
5.5139435412
 31
0.0
  0
LINE
  5
4AD
330
1F
100
AcDbEntity
  8
0
  6
Continuous
 62
     7
370
    30
100
AcDbLine
 10
3.0091786666
 20
5.4997985846
 30
0.0
 11
2.9661383639
 21
5.4997985846
 31
0.0
  0
LINE
  5
4AE
330
1F
100
AcDbEntity
  8
0
  6
Continuous
 62
     7
370
    30
100
AcDbLine
 10
3.1561381423
 20
5.4997985846
 30
0.0
 11
3.0091786666
 21
5.4997985846
 31
0.0
  0
LINE
  5
4AF
330
1F
100
AcDbEntity
  8
0
  6
Continuous
 62
     7
370
    30
100
AcDbLine
 10
3.0225785652
 20
5.5694992061
 30
0.0
 11
2.9906381608
 21
5.5694992061
 31
0.0
  0
LINE
  5
4B0
330
1F
100
AcDbEntity
  8
0
  6
Continuous
 62
     7
370
    30
100
AcDbLine
 10
3.1316383453
 20
5.5694992061
 30
0.0
 11
3.0225785652
 21
5.5694992061
 31
0.0
  0
LINE
  5
4B1
330
1F
100
AcDbEntity
  8
0
  6
Continuous
 62
     7
370
    30
100
AcDbLine
 10
3.0091786666
 20
5.5553541028
 30
0.0
 11
2.9661383639
 21
5.5553541028
 31
0.0
  0
LINE
  5
4B2
330
1F
100
AcDbEntity
  8
0
  6
Continuous
 62
     7
370
    30
100
AcDbLine
 10
3.1561381423
 20
5.5553541028
 30
0.0
 11
3.0091786666
 21
5.5553541028
 31
0.0
  0
LINE
  5
4B3
330
1F
100
AcDbEntity
  8
0
  6
Continuous
 62
     7
370
    30
100
AcDbLine
 10
2.9906381608
 20
5.5412089995
 30
0.0
 11
3.1316383453
 21
5.5412089995
 31
0.0
  0
LINE
  5
4B4
330
1F
100
AcDbEntity
  8
0
  6
Continuous
 62
     7
370
    30
100
AcDbLine
 10
2.9906381608
 20
5.4856534813
 30
0.0
 11
3.1316383453
 21
5.4856534813
 31
0.0
  0
LINE
  5
4B5
330
1F
100
AcDbEntity
  8
0
  6
Continuous
 62
     7
370
    30
100
AcDbLine
 10
3.0225785652
 20
5.458388023
 30
0.0
 11
2.9906381608
 21
5.458388023
 31
0.0
  0
LINE
  5
4B6
330
1F
100
AcDbEntity
  8
0
  6
Continuous
 62
     7
370
    30
100
AcDbLine
 10
3.1316383453
 20
5.458388023
 30
0.0
 11
3.0225785652
 21
5.458388023
 31
0.0
  0
LINE
  5
4B7
330
1F
100
AcDbEntity
  8
0
  6
Continuous
 62
     7
370
    30
100
AcDbLine
 10
3.0091786666
 20
5.4442429197
 30
0.0
 11
2.9661383639
 21
5.4442429197
 31
0.0
  0
LINE
  5
4B8
330
1F
100
AcDbEntity
  8
0
  6
Continuous
 62
     7
370
    30
100
AcDbLine
 10
3.1561381423
 20
5.4442429197
 30
0.0
 11
3.0091786666
 21
5.4442429197
 31
0.0
  0
LINE
  5
4B9
330
1F
100
AcDbEntity
  8
0
  6
Continuous
 62
     7
370
    30
100
AcDbLine
 10
2.9906381608
 20
5.4300978164
 30
0.0
 11
3.1316383453
 21
5.4300978164
 31
0.0
  0
LINE
  5
4BA
330
1F
100
AcDbEntity
  8
0
  6
Continuous
 62
     7
370
    30
100
AcDbLine
 10
3.0225785652
 20
5.4028325047
 30
0.0
 11
2.9906381608
 21
5.4028325047
 31
0.0
  0
LINE
  5
4BB
330
1F
100
AcDbEntity
  8
0
  6
Continuous
 62
     7
370
    30
100
AcDbLine
 10
3.1316383453
 20
5.4028325047
 30
0.0
 11
3.0225785652
 21
5.4028325047
 31
0.0
  0
LINE
  5
4BC
330
1F
100
AcDbEntity
  8
0
  6
Continuous
 62
     7
370
    30
100
AcDbLine
 10
3.0225785652
 20
6.8018186369
 30
0.0
 11
2.9906381608
 21
6.8018186369
 31
0.0
  0
LINE
  5
4BD
330
1F
100
AcDbEntity
  8
0
  6
Continuous
 62
     7
370
    30
100
AcDbLine
 10
3.1316383453
 20
6.8018186369
 30
0.0
 11
3.0225785652
 21
6.8018186369
 31
0.0
  0
LINE
  5
4BE
330
1F
100
AcDbEntity
  8
0
  6
Continuous
 62
     7
370
    30
100
AcDbLine
 10
8.3816383369
 20
6.7917213402
 30
0.0
 11
8.2406381524
 21
6.7917213402
 31
0.0
  0
LINE
  5
4BF
330
1F
100
AcDbEntity
  8
0
  6
Continuous
 62
     7
370
    30
100
AcDbLine
 10
8.4061381338
 20
6.7775763836
 30
0.0
 11
8.2161383554
 21
6.7775763836
 31
0.0
  0
LINE
  5
4C0
330
1F
100
AcDbEntity
  8
0
  6
Continuous
 62
     7
370
    30
100
AcDbLine
 10
8.3496979325
 20
6.7634311337
 30
0.0
 11
8.3816383369
 21
6.7634311337
 31
0.0
  0
LINE
  5
4C1
330
1F
100
AcDbEntity
  8
0
  6
Continuous
 62
     7
370
    30
100
AcDbLine
 10
8.2406381524
 20
6.7634311337
 30
0.0
 11
8.3496979325
 21
6.7634311337
 31
0.0
  0
LINE
  5
4C2
330
1F
100
AcDbEntity
  8
0
  6
Continuous
 62
     7
370
    30
100
AcDbLine
 10
8.3816383369
 20
6.736165822
 30
0.0
 11
8.2406381524
 21
6.736165822
 31
0.0
  0
LINE
  5
4C3
330
1F
100
AcDbEntity
  8
0
  6
Continuous
 62
     7
370
    30
100
AcDbLine
 10
8.4061381338
 20
6.7220208654
 30
0.0
 11
8.2161383554
 21
6.7220208654
 31
0.0
  0
LINE
  5
4C4
330
1F
100
AcDbEntity
  8
0
  6
Continuous
 62
     7
370
    30
100
AcDbLine
 10
8.3496979325
 20
6.7078756154
 30
0.0
 11
8.3816383369
 21
6.7078756154
 31
0.0
  0
LINE
  5
4C5
330
1F
100
AcDbEntity
  8
0
  6
Continuous
 62
     7
370
    30
100
AcDbLine
 10
8.2406381524
 20
6.7078756154
 30
0.0
 11
8.3496979325
 21
6.7078756154
 31
0.0
  0
LINE
  5
4C6
330
1F
100
AcDbEntity
  8
0
  6
Continuous
 62
     7
370
    30
100
AcDbLine
 10
8.4061381338
 20
6.6664650538
 30
0.0
 11
8.2161383554
 21
6.6664650538
 31
0.0
  0
LINE
  5
4C7
330
1F
100
AcDbEntity
  8
0
  6
Continuous
 62
     7
370
    30
100
AcDbLine
 10
8.3496979325
 20
6.6523200972
 30
0.0
 11
8.3816383369
 21
6.6523200972
 31
0.0
  0
LINE
  5
4C8
330
1F
100
AcDbEntity
  8
0
  6
Continuous
 62
     7
370
    30
100
AcDbLine
 10
8.2406381524
 20
6.6523200972
 30
0.0
 11
8.3496979325
 21
6.6523200972
 31
0.0
  0
LINE
  5
4C9
330
1F
100
AcDbEntity
  8
0
  6
Continuous
 62
     7
370
    30
100
AcDbLine
 10
8.4061381338
 20
6.6109095356
 30
0.0
 11
8.2161383554
 21
6.6109095356
 31
0.0
  0
LINE
  5
4CA
330
1F
100
AcDbEntity
  8
0
  6
Continuous
 62
     7
370
    30
100
AcDbLine
 10
8.3496979325
 20
6.596764579
 30
0.0
 11
8.3816383369
 21
6.596764579
 31
0.0
  0
LINE
  5
4CB
330
1F
100
AcDbEntity
  8
0
  6
Continuous
 62
     7
370
    30
100
AcDbLine
 10
8.2406381524
 20
6.596764579
 30
0.0
 11
8.3496979325
 21
6.596764579
 31
0.0
  0
LINE
  5
4CC
330
1F
100
AcDbEntity
  8
0
  6
Continuous
 62
     7
370
    30
100
AcDbLine
 10
8.3816383369
 20
6.6250547855
 30
0.0
 11
8.2406381524
 21
6.6250547855
 31
0.0
  0
LINE
  5
4CD
330
1F
100
AcDbEntity
  8
0
  6
Continuous
 62
     7
370
    30
100
AcDbLine
 10
8.3816383369
 20
6.6806103037
 30
0.0
 11
8.2406381524
 21
6.6806103037
 31
0.0
  0
LINE
  5
4CE
330
1F
100
AcDbEntity
  8
0
  6
Continuous
 62
     7
370
    30
100
AcDbLine
 10
8.3816383369
 20
6.5694992673
 30
0.0
 11
8.2406381524
 21
6.5694992673
 31
0.0
  0
LINE
  5
4CF
330
1F
100
AcDbEntity
  8
0
  6
Continuous
 62
     7
370
    30
100
AcDbLine
 10
8.4061381338
 20
6.5553540174
 30
0.0
 11
8.2161383554
 21
6.5553540174
 31
0.0
  0
LINE
  5
4D0
330
1F
100
AcDbEntity
  8
0
  6
Continuous
 62
     7
370
    30
100
AcDbLine
 10
8.3496979325
 20
6.5412090608
 30
0.0
 11
8.3816383369
 21
6.5412090608
 31
0.0
  0
LINE
  5
4D1
330
1F
100
AcDbEntity
  8
0
  6
Continuous
 62
     7
370
    30
100
AcDbLine
 10
8.2406381524
 20
6.5412090608
 30
0.0
 11
8.3496979325
 21
6.5412090608
 31
0.0
  0
LINE
  5
4D2
330
1F
100
AcDbEntity
  8
0
  6
Continuous
 62
     7
370
    30
100
AcDbLine
 10
8.3816383369
 20
6.5139434558
 30
0.0
 11
8.2406381524
 21
6.5139434558
 31
0.0
  0
LINE
  5
4D3
330
1F
100
AcDbEntity
  8
0
  6
Continuous
 62
     7
370
    30
100
AcDbLine
 10
8.4061381338
 20
6.4997984992
 30
0.0
 11
8.2161383554
 21
6.4997984992
 31
0.0
  0
LINE
  5
4D4
330
1F
100
AcDbEntity
  8
0
  6
Continuous
 62
     7
370
    30
100
AcDbLine
 10
8.3816383369
 20
6.4583879375
 30
0.0
 11
8.2406381524
 21
6.4583879375
 31
0.0
  0
LINE
  5
4D5
330
1F
100
AcDbEntity
  8
0
  6
Continuous
 62
     7
370
    30
100
AcDbLine
 10
8.4061381338
 20
6.444242981
 30
0.0
 11
8.2161383554
 21
6.444242981
 31
0.0
  0
LINE
  5
4D6
330
1F
100
AcDbEntity
  8
0
  6
Continuous
 62
     7
370
    30
100
AcDbLine
 10
8.3496979325
 20
6.4856535426
 30
0.0
 11
8.3816383369
 21
6.4856535426
 31
0.0
  0
LINE
  5
4D7
330
1F
100
AcDbEntity
  8
0
  6
Continuous
 62
     7
370
    30
100
AcDbLine
 10
8.2406381524
 20
6.4856535426
 30
0.0
 11
8.3496979325
 21
6.4856535426
 31
0.0
  0
LINE
  5
4D8
330
1F
100
AcDbEntity
  8
0
  6
Continuous
 62
     7
370
    30
100
AcDbLine
 10
8.3496979325
 20
6.4300980244
 30
0.0
 11
8.3816383369
 21
6.4300980244
 31
0.0
  0
LINE
  5
4D9
330
1F
100
AcDbEntity
  8
0
  6
Continuous
 62
     7
370
    30
100
AcDbLine
 10
8.2406381524
 20
6.4300980244
 30
0.0
 11
8.3496979325
 21
6.4300980244
 31
0.0
  0
LINE
  5
4DA
330
1F
100
AcDbEntity
  8
0
  6
Continuous
 62
     7
370
    30
100
AcDbLine
 10
8.4061381338
 20
6.3886874627
 30
0.0
 11
8.2161383554
 21
6.3886874627
 31
0.0
  0
LINE
  5
4DB
330
1F
100
AcDbEntity
  8
0
  6
Continuous
 62
     7
370
    30
100
AcDbLine
 10
8.3496979325
 20
6.3745422128
 30
0.0
 11
8.3816383369
 21
6.3745422128
 31
0.0
  0
LINE
  5
4DC
330
1F
100
AcDbEntity
  8
0
  6
Continuous
 62
     7
370
    30
100
AcDbLine
 10
8.2406381524
 20
6.3745422128
 30
0.0
 11
8.3496979325
 21
6.3745422128
 31
0.0
  0
LINE
  5
4DD
330
1F
100
AcDbEntity
  8
0
  6
Continuous
 62
     7
370
    30
100
AcDbLine
 10
8.3816383369
 20
6.4028324193
 30
0.0
 11
8.2406381524
 21
6.4028324193
 31
0.0
  0
LINE
  5
4DE
330
1F
100
AcDbEntity
  8
0
  6
Continuous
 62
     7
370
    30
100
AcDbLine
 10
8.3816383369
 20
6.3472769011
 30
0.0
 11
8.2406381524
 21
6.3472769011
 31
0.0
  0
LINE
  5
4DF
330
1F
100
AcDbEntity
  8
0
  6
Continuous
 62
     7
370
    30
100
AcDbLine
 10
8.4061381338
 20
6.3331319445
 30
0.0
 11
8.2161383554
 21
6.3331319445
 31
0.0
  0
LINE
  5
4E0
330
1F
100
AcDbEntity
  8
0
  6
Continuous
 62
     7
370
    30
100
AcDbLine
 10
8.3496979325
 20
6.3189866946
 30
0.0
 11
8.3816383369
 21
6.3189866946
 31
0.0
  0
LINE
  5
4E1
330
1F
100
AcDbEntity
  8
0
  6
Continuous
 62
     7
370
    30
100
AcDbLine
 10
8.2406381524
 20
6.3189866946
 30
0.0
 11
8.3496979325
 21
6.3189866946
 31
0.0
  0
LINE
  5
4E2
330
1F
100
AcDbEntity
  8
0
  6
Continuous
 62
     7
370
    30
100
AcDbLine
 10
8.4061381338
 20
6.2775764263
 30
0.0
 11
8.2161383554
 21
6.2775764263
 31
0.0
  0
LINE
  5
4E3
330
1F
100
AcDbEntity
  8
0
  6
Continuous
 62
     7
370
    30
100
AcDbLine
 10
8.3496979325
 20
6.2634311764
 30
0.0
 11
8.3816383369
 21
6.2634311764
 31
0.0
  0
LINE
  5
4E4
330
1F
100
AcDbEntity
  8
0
  6
Continuous
 62
     7
370
    30
100
AcDbLine
 10
8.2406381524
 20
6.2634311764
 30
0.0
 11
8.3496979325
 21
6.2634311764
 31
0.0
  0
LINE
  5
4E5
330
1F
100
AcDbEntity
  8
0
  6
Continuous
 62
     7
370
    30
100
AcDbLine
 10
8.3816383369
 20
6.2361658647
 30
0.0
 11
8.2406381524
 21
6.2361658647
 31
0.0
  0
LINE
  5
4E6
330
1F
100
AcDbEntity
  8
0
  6
Continuous
 62
     7
370
    30
100
AcDbLine
 10
8.4061381338
 20
6.2220206148
 30
0.0
 11
8.2161383554
 21
6.2220206148
 31
0.0
  0
LINE
  5
4E7
330
1F
100
AcDbEntity
  8
0
  6
Continuous
 62
     7
370
    30
100
AcDbLine
 10
8.3496979325
 20
6.2078756582
 30
0.0
 11
8.3816383369
 21
6.2078756582
 31
0.0
  0
LINE
  5
4E8
330
1F
100
AcDbEntity
  8
0
  6
Continuous
 62
     7
370
    30
100
AcDbLine
 10
8.2406381524
 20
6.2078756582
 30
0.0
 11
8.3496979325
 21
6.2078756582
 31
0.0
  0
LINE
  5
4E9
330
1F
100
AcDbEntity
  8
0
  6
Continuous
 62
     7
370
    30
100
AcDbLine
 10
8.3816383369
 20
6.2917213829
 30
0.0
 11
8.2406381524
 21
6.2917213829
 31
0.0
  0
LINE
  5
4EA
330
1F
100
AcDbEntity
  8
0
  6
Continuous
 62
     7
370
    30
100
AcDbLine
 10
8.3816383369
 20
6.1806103465
 30
0.0
 11
8.2406381524
 21
6.1806103465
 31
0.0
  0
LINE
  5
4EB
330
1F
100
AcDbEntity
  8
0
  6
Continuous
 62
     7
370
    30
100
AcDbLine
 10
8.4061381338
 20
6.1664650965
 30
0.0
 11
8.2161383554
 21
6.1664650965
 31
0.0
  0
LINE
  5
4EC
330
1F
100
AcDbEntity
  8
0
  6
Continuous
 62
     7
370
    30
100
AcDbLine
 10
8.3816383369
 20
6.1250548282
 30
0.0
 11
8.2406381524
 21
6.1250548282
 31
0.0
  0
LINE
  5
4ED
330
1F
100
AcDbEntity
  8
0
  6
Continuous
 62
     7
370
    30
100
AcDbLine
 10
8.4061381338
 20
6.1109095783
 30
0.0
 11
8.2161383554
 21
6.1109095783
 31
0.0
  0
LINE
  5
4EE
330
1F
100
AcDbEntity
  8
0
  6
Continuous
 62
     7
370
    30
100
AcDbLine
 10
8.3496979325
 20
6.1523201399
 30
0.0
 11
8.3816383369
 21
6.1523201399
 31
0.0
  0
LINE
  5
4EF
330
1F
100
AcDbEntity
  8
0
  6
Continuous
 62
     7
370
    30
100
AcDbLine
 10
8.2406381524
 20
6.1523201399
 30
0.0
 11
8.3496979325
 21
6.1523201399
 31
0.0
  0
LINE
  5
4F0
330
1F
100
AcDbEntity
  8
0
  6
Continuous
 62
     7
370
    30
100
AcDbLine
 10
8.3816383369
 20
6.0694990167
 30
0.0
 11
8.2406381524
 21
6.0694990167
 31
0.0
  0
LINE
  5
4F1
330
1F
100
AcDbEntity
  8
0
  6
Continuous
 62
     7
370
    30
100
AcDbLine
 10
8.4061381338
 20
6.0553540601
 30
0.0
 11
8.2161383554
 21
6.0553540601
 31
0.0
  0
LINE
  5
4F2
330
1F
100
AcDbEntity
  8
0
  6
Continuous
 62
     7
370
    30
100
AcDbLine
 10
8.3496979325
 20
6.0967646217
 30
0.0
 11
8.3816383369
 21
6.0967646217
 31
0.0
  0
LINE
  5
4F3
330
1F
100
AcDbEntity
  8
0
  6
Continuous
 62
     7
370
    30
100
AcDbLine
 10
8.2406381524
 20
6.0967646217
 30
0.0
 11
8.3496979325
 21
6.0967646217
 31
0.0
  0
LINE
  5
4F4
330
1F
100
AcDbEntity
  8
0
  6
Continuous
 62
     7
370
    30
100
AcDbLine
 10
8.3816383369
 20
6.0139434985
 30
0.0
 11
8.2406381524
 21
6.0139434985
 31
0.0
  0
LINE
  5
4F5
330
1F
100
AcDbEntity
  8
0
  6
Continuous
 62
     7
370
    30
100
AcDbLine
 10
8.4061381338
 20
5.9997985419
 30
0.0
 11
8.2161383554
 21
5.9997985419
 31
0.0
  0
LINE
  5
4F6
330
1F
100
AcDbEntity
  8
0
  6
Continuous
 62
     7
370
    30
100
AcDbLine
 10
8.3496979325
 20
6.0412091035
 30
0.0
 11
8.3816383369
 21
6.0412091035
 31
0.0
  0
LINE
  5
4F7
330
1F
100
AcDbEntity
  8
0
  6
Continuous
 62
     7
370
    30
100
AcDbLine
 10
8.2406381524
 20
6.0412091035
 30
0.0
 11
8.3496979325
 21
6.0412091035
 31
0.0
  0
LINE
  5
4F8
330
1F
100
AcDbEntity
  8
0
  6
Continuous
 62
     7
370
    30
100
AcDbLine
 10
8.3496979325
 20
5.985653292
 30
0.0
 11
8.3816383369
 21
5.985653292
 31
0.0
  0
LINE
  5
4F9
330
1F
100
AcDbEntity
  8
0
  6
Continuous
 62
     7
370
    30
100
AcDbLine
 10
8.2406381524
 20
5.985653292
 30
0.0
 11
8.3496979325
 21
5.985653292
 31
0.0
  0
LINE
  5
4FA
330
1F
100
AcDbEntity
  8
0
  6
Continuous
 62
     7
370
    30
100
AcDbLine
 10
8.4061381338
 20
5.8886875054
 30
0.0
 11
8.2161383554
 21
5.8886875054
 31
0.0
  0
LINE
  5
4FB
330
1F
100
AcDbEntity
  8
0
  6
Continuous
 62
     7
370
    30
100
AcDbLine
 10
8.3496979325
 20
5.8745422555
 30
0.0
 11
8.3816383369
 21
5.8745422555
 31
0.0
  0
LINE
  5
4FC
330
1F
100
AcDbEntity
  8
0
  6
Continuous
 62
     7
370
    30
100
AcDbLine
 10
8.2406381524
 20
5.8745422555
 30
0.0
 11
8.3496979325
 21
5.8745422555
 31
0.0
  0
LINE
  5
4FD
330
1F
100
AcDbEntity
  8
0
  6
Continuous
 62
     7
370
    30
100
AcDbLine
 10
8.4061381338
 20
5.9442430237
 30
0.0
 11
8.2161383554
 21
5.9442430237
 31
0.0
  0
LINE
  5
4FE
330
1F
100
AcDbEntity
  8
0
  6
Continuous
 62
     7
370
    30
100
AcDbLine
 10
8.3496979325
 20
5.9300977737
 30
0.0
 11
8.3816383369
 21
5.9300977737
 31
0.0
  0
LINE
  5
4FF
330
1F
100
AcDbEntity
  8
0
  6
Continuous
 62
     7
370
    30
100
AcDbLine
 10
8.2406381524
 20
5.9300977737
 30
0.0
 11
8.3496979325
 21
5.9300977737
 31
0.0
  0
LINE
  5
500
330
1F
100
AcDbEntity
  8
0
  6
Continuous
 62
     7
370
    30
100
AcDbLine
 10
8.3816383369
 20
5.902832462
 30
0.0
 11
8.2406381524
 21
5.902832462
 31
0.0
  0
LINE
  5
501
330
1F
100
AcDbEntity
  8
0
  6
Continuous
 62
     7
370
    30
100
AcDbLine
 10
8.3816383369
 20
5.9583879803
 30
0.0
 11
8.2406381524
 21
5.9583879803
 31
0.0
  0
LINE
  5
502
330
1F
100
AcDbEntity
  8
0
  6
Continuous
 62
     7
370
    30
100
AcDbLine
 10
8.4061381338
 20
5.8331318406
 30
0.0
 11
8.2161383554
 21
5.8331318406
 31
0.0
  0
LINE
  5
503
330
1F
100
AcDbEntity
  8
0
  6
Continuous
 62
     7
370
    30
100
AcDbLine
 10
8.3496979325
 20
5.8189867373
 30
0.0
 11
8.3816383369
 21
5.8189867373
 31
0.0
  0
LINE
  5
504
330
1F
100
AcDbEntity
  8
0
  6
Continuous
 62
     7
370
    30
100
AcDbLine
 10
8.2406381524
 20
5.8189867373
 30
0.0
 11
8.3496979325
 21
5.8189867373
 31
0.0
  0
LINE
  5
505
330
1F
100
AcDbEntity
  8
0
  6
Continuous
 62
     7
370
    30
100
AcDbLine
 10
8.3816383369
 20
5.8472769438
 30
0.0
 11
8.2406381524
 21
5.8472769438
 31
0.0
  0
LINE
  5
506
330
1F
100
AcDbEntity
  8
0
  6
Continuous
 62
     7
370
    30
100
AcDbLine
 10
8.3816383369
 20
5.7917214256
 30
0.0
 11
8.2406381524
 21
5.7917214256
 31
0.0
  0
LINE
  5
507
330
1F
100
AcDbEntity
  8
0
  6
Continuous
 62
     7
370
    30
100
AcDbLine
 10
8.4061381338
 20
5.7775763223
 30
0.0
 11
8.2161383554
 21
5.7775763223
 31
0.0
  0
LINE
  5
508
330
1F
100
AcDbEntity
  8
0
  6
Continuous
 62
     7
370
    30
100
AcDbLine
 10
8.3496979325
 20
5.7634312191
 30
0.0
 11
8.3816383369
 21
5.7634312191
 31
0.0
  0
LINE
  5
509
330
1F
100
AcDbEntity
  8
0
  6
Continuous
 62
     7
370
    30
100
AcDbLine
 10
8.2406381524
 20
5.7634312191
 30
0.0
 11
8.3496979325
 21
5.7634312191
 31
0.0
  0
LINE
  5
50A
330
1F
100
AcDbEntity
  8
0
  6
Continuous
 62
     7
370
    30
100
AcDbLine
 10
8.3816383369
 20
5.7361657607
 30
0.0
 11
8.2406381524
 21
5.7361657607
 31
0.0
  0
LINE
  5
50B
330
1F
100
AcDbEntity
  8
0
  6
Continuous
 62
     7
370
    30
100
AcDbLine
 10
8.4061381338
 20
5.7220208041
 30
0.0
 11
8.2161383554
 21
5.7220208041
 31
0.0
  0
LINE
  5
50C
330
1F
100
AcDbEntity
  8
0
  6
Continuous
 62
     7
370
    30
100
AcDbLine
 10
8.3816383369
 20
5.6806102425
 30
0.0
 11
8.2406381524
 21
5.6806102425
 31
0.0
  0
LINE
  5
50D
330
1F
100
AcDbEntity
  8
0
  6
Continuous
 62
     7
370
    30
100
AcDbLine
 10
8.4061381338
 20
5.6664651392
 30
0.0
 11
8.2161383554
 21
5.6664651392
 31
0.0
  0
LINE
  5
50E
330
1F
100
AcDbEntity
  8
0
  6
Continuous
 62
     7
370
    30
100
AcDbLine
 10
8.3496979325
 20
5.652320036
 30
0.0
 11
8.3816383369
 21
5.652320036
 31
0.0
  0
LINE
  5
50F
330
1F
100
AcDbEntity
  8
0
  6
Continuous
 62
     7
370
    30
100
AcDbLine
 10
8.2406381524
 20
5.652320036
 30
0.0
 11
8.3496979325
 21
5.652320036
 31
0.0
  0
LINE
  5
510
330
1F
100
AcDbEntity
  8
0
  6
Continuous
 62
     7
370
    30
100
AcDbLine
 10
8.3496979325
 20
5.7078757009
 30
0.0
 11
8.3816383369
 21
5.7078757009
 31
0.0
  0
LINE
  5
511
330
1F
100
AcDbEntity
  8
0
  6
Continuous
 62
     7
370
    30
100
AcDbLine
 10
8.2406381524
 20
5.7078757009
 30
0.0
 11
8.3496979325
 21
5.7078757009
 31
0.0
  0
LINE
  5
512
330
1F
100
AcDbEntity
  8
0
  6
Continuous
 62
     7
370
    30
100
AcDbLine
 10
8.3816383369
 20
5.6250547243
 30
0.0
 11
8.2406381524
 21
5.6250547243
 31
0.0
  0
LINE
  5
513
330
1F
100
AcDbEntity
  8
0
  6
Continuous
 62
     7
370
    30
100
AcDbLine
 10
8.4061381338
 20
5.610909621
 30
0.0
 11
8.2161383554
 21
5.610909621
 31
0.0
  0
LINE
  5
514
330
1F
100
AcDbEntity
  8
0
  6
Continuous
 62
     7
370
    30
100
AcDbLine
 10
8.3496979325
 20
5.5967645178
 30
0.0
 11
8.3816383369
 21
5.5967645178
 31
0.0
  0
LINE
  5
515
330
1F
100
AcDbEntity
  8
0
  6
Continuous
 62
     7
370
    30
100
AcDbLine
 10
8.2406381524
 20
5.5967645178
 30
0.0
 11
8.3496979325
 21
5.5967645178
 31
0.0
  0
LINE
  5
516
330
1F
100
AcDbEntity
  8
0
  6
Continuous
 62
     7
370
    30
100
AcDbLine
 10
8.3816383369
 20
5.5139435412
 30
0.0
 11
8.2406381524
 21
5.5139435412
 31
0.0
  0
LINE
  5
517
330
1F
100
AcDbEntity
  8
0
  6
Continuous
 62
     7
370
    30
100
AcDbLine
 10
8.4061381338
 20
5.4997985846
 30
0.0
 11
8.2161383554
 21
5.4997985846
 31
0.0
  0
LINE
  5
518
330
1F
100
AcDbEntity
  8
0
  6
Continuous
 62
     7
370
    30
100
AcDbLine
 10
8.3816383369
 20
5.5694992061
 30
0.0
 11
8.2406381524
 21
5.5694992061
 31
0.0
  0
LINE
  5
519
330
1F
100
AcDbEntity
  8
0
  6
Continuous
 62
     7
370
    30
100
AcDbLine
 10
8.4061381338
 20
5.5553541028
 30
0.0
 11
8.2161383554
 21
5.5553541028
 31
0.0
  0
LINE
  5
51A
330
1F
100
AcDbEntity
  8
0
  6
Continuous
 62
     7
370
    30
100
AcDbLine
 10
8.3816383369
 20
5.458388023
 30
0.0
 11
8.2406381524
 21
5.458388023
 31
0.0
  0
LINE
  5
51B
330
1F
100
AcDbEntity
  8
0
  6
Continuous
 62
     7
370
    30
100
AcDbLine
 10
8.4061381338
 20
5.4442429197
 30
0.0
 11
8.2161383554
 21
5.4442429197
 31
0.0
  0
LINE
  5
51C
330
1F
100
AcDbEntity
  8
0
  6
Continuous
 62
     7
370
    30
100
AcDbLine
 10
8.3496979325
 20
5.4856534813
 30
0.0
 11
8.3816383369
 21
5.4856534813
 31
0.0
  0
LINE
  5
51D
330
1F
100
AcDbEntity
  8
0
  6
Continuous
 62
     7
370
    30
100
AcDbLine
 10
8.2406381524
 20
5.4856534813
 30
0.0
 11
8.3496979325
 21
5.4856534813
 31
0.0
  0
LINE
  5
51E
330
1F
100
AcDbEntity
  8
0
  6
Continuous
 62
     7
370
    30
100
AcDbLine
 10
8.3496979325
 20
5.5412089995
 30
0.0
 11
8.3816383369
 21
5.5412089995
 31
0.0
  0
LINE
  5
51F
330
1F
100
AcDbEntity
  8
0
  6
Continuous
 62
     7
370
    30
100
AcDbLine
 10
8.2406381524
 20
5.5412089995
 30
0.0
 11
8.3496979325
 21
5.5412089995
 31
0.0
  0
LINE
  5
520
330
1F
100
AcDbEntity
  8
0
  6
Continuous
 62
     7
370
    30
100
AcDbLine
 10
8.3496979325
 20
5.4300978164
 30
0.0
 11
8.3816383369
 21
5.4300978164
 31
0.0
  0
LINE
  5
521
330
1F
100
AcDbEntity
  8
0
  6
Continuous
 62
     7
370
    30
100
AcDbLine
 10
8.2406381524
 20
5.4300978164
 30
0.0
 11
8.3496979325
 21
5.4300978164
 31
0.0
  0
LINE
  5
522
330
1F
100
AcDbEntity
  8
0
  6
Continuous
 62
     7
370
    30
100
AcDbLine
 10
8.3816383369
 20
5.4028325047
 30
0.0
 11
8.2406381524
 21
5.4028325047
 31
0.0
  0
LINE
  5
523
330
1F
100
AcDbEntity
  8
0
  6
Continuous
 62
     7
370
    30
100
AcDbLine
 10
8.3816383369
 20
6.8018186369
 30
0.0
 11
8.2406381524
 21
6.8018186369
 31
0.0
  0
LINE
  5
524
330
1F
100
AcDbEntity
  8
0
  6
Continuous
 62
     7
370
    30
100
AcDbLine
 10
7.8111382873
 20
5.2530206887
 30
0.0
 11
8.8111382019
 21
5.2530206887
 31
0.0
  0
LINE
  5
525
330
1F
100
AcDbEntity
  8
0
  6
Continuous
 62
     7
370
    30
100
AcDbLine
 10
7.8111382873
 20
5.3490206864
 30
0.0
 11
7.8111382873
 21
5.2530206887
 31
0.0
  0
LINE
  5
526
330
1F
100
AcDbEntity
  8
0
  6
Continuous
 62
     7
370
    30
100
AcDbLine
 10
7.8111382873
 20
5.3490206864
 30
0.0
 11
8.8111382019
 21
5.3490206864
 31
0.0
  0
LINE
  5
527
330
1F
100
AcDbEntity
  8
0
  6
Continuous
 62
     7
370
    30
100
AcDbLine
 10
8.8111382019
 20
5.3490206864
 30
0.0
 11
8.8111382019
 21
5.2530206887
 31
0.0
  0
LINE
  5
528
330
1F
100
AcDbEntity
  8
0
  6
Continuous
 62
     7
370
    30
100
AcDbLine
 10
7.8111382873
 20
4.9740207918
 30
0.0
 11
8.8111382019
 21
4.9740207918
 31
0.0
  0
LINE
  5
529
330
1F
100
AcDbEntity
  8
0
  6
Continuous
 62
     7
370
    30
100
AcDbLine
 10
8.8111382019
 20
5.2530206887
 30
0.0
 11
8.8111382019
 21
4.9740207918
 31
0.0
  0
LINE
  5
52A
330
1F
100
AcDbEntity
  8
0
  6
Continuous
 62
     7
370
    30
100
AcDbLine
 10
7.8111382873
 20
5.2530206887
 30
0.0
 11
7.8111382873
 21
4.9740207918
 31
0.0
  0
LINE
  5
52B
330
1F
100
AcDbEntity
  8
0
  6
Continuous
 62
     7
370
    30
100
AcDbLine
 10
7.8111382873
 20
6.8780207699
 30
0.0
 11
7.8111382873
 21
5.3490206864
 31
0.0
  0
LINE
  5
52C
330
1F
100
AcDbEntity
  8
0
  6
Continuous
 62
     7
370
    30
100
AcDbLine
 10
7.8111382873
 20
6.8780207699
 30
0.0
 11
8.2722022144
 21
6.8780207699
 31
0.0
  0
LINE
  5
52D
330
1F
100
AcDbEntity
  8
0
  6
Continuous
 62
     7
370
    30
100
AcDbLine
 10
8.3500742748
 20
6.8780207699
 30
0.0
 11
8.8111382019
 21
6.8780207699
 31
0.0
  0
ARC
  5
52E
330
1F
100
AcDbEntity
  8
0
  6
Continuous
 62
     7
370
    30
100
AcDbCircle
 10
8.3111382488
 20
6.5350207373
 30
0.0
 40
0.1250000000000005
100
AcDbArc
 50
124.3328783066
 51
224.4140203495
  0
ARC
  5
52F
330
1F
100
AcDbEntity
  8
0
  6
Continuous
 62
     7
370
    30
100
AcDbCircle
 10
8.3111382488
 20
6.5350207373
 30
0.0
 40
0.1250000000000001
100
AcDbArc
 50
315.5859796505
 51
55.6671216934
  0
LINE
  5
530
330
1F
100
AcDbEntity
  8
0
  6
Continuous
 62
     7
370
    30
100
AcDbLine
 10
8.8111382019
 20
6.8780207699
 30
0.0
 11
8.8111382019
 21
5.3490206864
 31
0.0
  0
LINE
  5
531
330
1F
100
AcDbEntity
  8
0
  6
Continuous
 62
     7
370
    30
100
AcDbLine
 10
2.5611382958
 20
5.2530206887
 30
0.0
 11
3.5611382104
 21
5.2530206887
 31
0.0
  0
LINE
  5
532
330
1F
100
AcDbEntity
  8
0
  6
Continuous
 62
     7
370
    30
100
AcDbLine
 10
2.5611382958
 20
5.3490206864
 30
0.0
 11
3.5611382104
 21
5.3490206864
 31
0.0
  0
LINE
  5
533
330
1F
100
AcDbEntity
  8
0
  6
Continuous
 62
     7
370
    30
100
AcDbLine
 10
2.5611382958
 20
5.3490206864
 30
0.0
 11
2.5611382958
 21
5.2530206887
 31
0.0
  0
LINE
  5
534
330
1F
100
AcDbEntity
  8
0
  6
Continuous
 62
     7
370
    30
100
AcDbLine
 10
3.5611382104
 20
5.3490206864
 30
0.0
 11
3.5611382104
 21
5.2530206887
 31
0.0
  0
LINE
  5
535
330
1F
100
AcDbEntity
  8
0
  6
Continuous
 62
     7
370
    30
100
AcDbLine
 10
2.5611382958
 20
4.9740207918
 30
0.0
 11
3.5611382104
 21
4.9740207918
 31
0.0
  0
LINE
  5
536
330
1F
100
AcDbEntity
  8
0
  6
Continuous
 62
     7
370
    30
100
AcDbLine
 10
3.5611382104
 20
5.2530206887
 30
0.0
 11
3.5611382104
 21
4.9740207918
 31
0.0
  0
LINE
  5
537
330
1F
100
AcDbEntity
  8
0
  6
Continuous
 62
     7
370
    30
100
AcDbLine
 10
2.5611382958
 20
5.2530206887
 30
0.0
 11
2.5611382958
 21
4.9740207918
 31
0.0
  0
LINE
  5
538
330
1F
100
AcDbEntity
  8
0
  6
Continuous
 62
     7
370
    30
100
AcDbLine
 10
2.5611382958
 20
6.8780207699
 30
0.0
 11
2.5611382958
 21
5.3490206864
 31
0.0
  0
LINE
  5
539
330
1F
100
AcDbEntity
  8
0
  6
Continuous
 62
     7
370
    30
100
AcDbLine
 10
2.5611382958
 20
6.8780207699
 30
0.0
 11
3.0222022229
 21
6.8780207699
 31
0.0
  0
LINE
  5
53A
330
1F
100
AcDbEntity
  8
0
  6
Continuous
 62
     7
370
    30
100
AcDbLine
 10
3.1000742833
 20
6.8780207699
 30
0.0
 11
3.5611382104
 21
6.8780207699
 31
0.0
  0
ARC
  5
53B
330
1F
100
AcDbEntity
  8
0
  6
Continuous
 62
     7
370
    30
100
AcDbCircle
 10
3.0611382488
 20
6.5350207373
 30
0.0
 40
0.1250000000000015
100
AcDbArc
 50
124.3328783066
 51
224.4140203495
  0
ARC
  5
53C
330
1F
100
AcDbEntity
  8
0
  6
Continuous
 62
     7
370
    30
100
AcDbCircle
 10
3.0611382488
 20
6.5350207373
 30
0.0
 40
0.1250000000000009
100
AcDbArc
 50
315.5859796505
 51
55.6671216934
  0
LINE
  5
53D
330
1F
100
AcDbEntity
  8
0
  6
Continuous
 62
     7
370
    30
100
AcDbLine
 10
3.5611382104
 20
6.8780207699
 30
0.0
 11
3.5611382104
 21
5.3490206864
 31
0.0
  0
LINE
  5
53E
330
1F
100
AcDbEntity
  8
0
  6
Continuous
 62
     7
370
    30
100
AcDbLine
 10
4.5611382716
 20
4.6420207204
 30
0.0
 11
4.5611382716
 21
4.5790207082
 31
0.0
  0
LINE
  5
53F
330
1F
100
AcDbEntity
  8
0
  6
Continuous
 62
     7
370
    30
100
AcDbLine
 10
5.0611382289
 20
4.6420207204
 30
0.0
 11
4.5611382716
 21
4.6420207204
 31
0.0
  0
LINE
  5
540
330
1F
100
AcDbEntity
  8
0
  6
Continuous
 62
     7
370
    30
100
AcDbLine
 10
5.0611382289
 20
4.6420207204
 30
0.0
 11
5.0611382289
 21
4.5790207082
 31
0.0
  0
LINE
  5
541
330
1F
100
AcDbEntity
  8
0
  6
Continuous
 62
     7
370
    30
100
AcDbLine
 10
5.0611382289
 20
4.5790207082
 30
0.0
 11
4.5611382716
 21
4.5790207082
 31
0.0
  0
LINE
  5
542
330
1F
100
AcDbEntity
  8
0
  6
Continuous
 62
     7
370
    30
100
AcDbLine
 10
5.5981382479
 20
5.1910207116
 30
0.0
 11
5.5981382479
 21
4.566020765
 31
0.0
  0
LINE
  5
543
330
1F
100
AcDbEntity
  8
0
  6
Continuous
 62
     7
370
    30
100
AcDbLine
 10
5.5981382479
 20
5.1910207116
 30
0.0
 11
5.6611382487
 21
5.1910207116
 31
0.0
  0
LINE
  5
544
330
1F
100
AcDbEntity
  8
0
  6
Continuous
 62
     7
370
    30
100
AcDbLine
 10
5.5981382479
 20
4.566020765
 30
0.0
 11
5.6611382487
 21
4.566020765
 31
0.0
  0
LINE
  5
545
330
1F
100
AcDbEntity
  8
0
  6
Continuous
 62
     7
370
    30
100
AcDbLine
 10
4.0241382617
 20
5.1910207116
 30
0.0
 11
4.0241382617
 21
4.566020765
 31
0.0
  0
LINE
  5
546
330
1F
100
AcDbEntity
  8
0
  6
Continuous
 62
     7
370
    30
100
AcDbLine
 10
4.0241382617
 20
5.1910207116
 30
0.0
 11
3.9611381762
 21
5.1910207116
 31
0.0
  0
LINE
  5
547
330
1F
100
AcDbEntity
  8
0
  6
Continuous
 62
     7
370
    30
100
AcDbLine
 10
4.0241382617
 20
4.566020765
 30
0.0
 11
3.9611381762
 21
4.566020765
 31
0.0
  0
LINE
  5
548
330
1F
100
AcDbEntity
  8
0
  6
Continuous
 62
     7
370
    30
100
AcDbLine
 10
4.5611382716
 20
4.6570207338
 30
0.0
 11
4.5611382716
 21
4.6420207204
 31
0.0
  0
LINE
  5
549
330
1F
100
AcDbEntity
  8
0
  6
Continuous
 62
     7
370
    30
100
AcDbLine
 10
5.0611382289
 20
4.6570207338
 30
0.0
 11
4.5611382716
 21
4.6570207338
 31
0.0
  0
LINE
  5
54A
330
1F
100
AcDbEntity
  8
0
  6
Continuous
 62
     7
370
    30
100
AcDbLine
 10
5.0611382289
 20
4.6420207204
 30
0.0
 11
5.0611382289
 21
4.6570207338
 31
0.0
  0
LINE
  5
54B
330
1F
100
AcDbEntity
  8
0
  6
Continuous
 62
     7
370
    30
100
AcDbLine
 10
5.5831382529
 20
4.6910207543
 30
0.0
 11
5.5981382479
 21
4.6910207543
 31
0.0
  0
LINE
  5
54C
330
1F
100
AcDbEntity
  8
0
  6
Continuous
 62
     7
370
    30
100
AcDbLine
 10
5.5831382529
 20
5.1910207116
 30
0.0
 11
5.5831382529
 21
4.6910207543
 31
0.0
  0
LINE
  5
54D
330
1F
100
AcDbEntity
  8
0
  6
Continuous
 62
     7
370
    30
100
AcDbLine
 10
5.5981382479
 20
5.1910207116
 30
0.0
 11
5.5831382529
 21
5.1910207116
 31
0.0
  0
LINE
  5
54E
330
1F
100
AcDbEntity
  8
0
  6
Continuous
 62
     7
370
    30
100
AcDbLine
 10
4.0391382751
 20
5.1910207116
 30
0.0
 11
4.0241382617
 21
5.1910207116
 31
0.0
  0
LINE
  5
54F
330
1F
100
AcDbEntity
  8
0
  6
Continuous
 62
     7
370
    30
100
AcDbLine
 10
4.0391382751
 20
4.6910207543
 30
0.0
 11
4.0391382751
 21
5.1910207116
 31
0.0
  0
LINE
  5
550
330
1F
100
AcDbEntity
  8
0
  6
Continuous
 62
     7
370
    30
100
AcDbLine
 10
4.0241382617
 20
4.6910207543
 30
0.0
 11
4.0391382751
 21
4.6910207543
 31
0.0
  0
LINE
  5
551
330
1F
100
AcDbEntity
  8
0
  6
Continuous
 62
     7
370
    30
100
AcDbLine
 10
4.5611382716
 20
4.6910207543
 30
0.0
 11
4.5611382716
 21
4.6570207338
 31
0.0
  0
LINE
  5
552
330
1F
100
AcDbEntity
  8
0
  6
Continuous
 62
     7
370
    30
100
AcDbLine
 10
4.5611382716
 20
4.6910207543
 30
0.0
 11
4.0391382751
 21
4.6910207543
 31
0.0
  0
LINE
  5
553
330
1F
100
AcDbEntity
  8
0
  6
Continuous
 62
     7
370
    30
100
AcDbLine
 10
4.0921383029
 20
5.1910207116
 30
0.0
 11
4.0391382751
 21
5.1910207116
 31
0.0
  0
LINE
  5
554
330
1F
100
AcDbEntity
  8
0
  6
Continuous
 62
     7
370
    30
100
AcDbLine
 10
4.0921383029
 20
5.2070206868
 30
0.0
 11
4.0921383029
 21
5.1910207116
 31
0.0
  0
LINE
  5
555
330
1F
100
AcDbEntity
  8
0
  6
Continuous
 62
     7
370
    30
100
AcDbLine
 10
4.0921383029
 20
5.2070206868
 30
0.0
 11
5.5301382526
 21
5.2070206868
 31
0.0
  0
LINE
  5
556
330
1F
100
AcDbEntity
  8
0
  6
Continuous
 62
     7
370
    30
100
AcDbLine
 10
5.5301382526
 20
5.1910207116
 30
0.0
 11
5.5301382526
 21
5.2070206868
 31
0.0
  0
LINE
  5
557
330
1F
100
AcDbEntity
  8
0
  6
Continuous
 62
     7
370
    30
100
AcDbLine
 10
5.5301382526
 20
5.1910207116
 30
0.0
 11
5.5831382529
 21
5.1910207116
 31
0.0
  0
LINE
  5
558
330
1F
100
AcDbEntity
  8
0
  6
Continuous
 62
     7
370
    30
100
AcDbLine
 10
5.5831382529
 20
4.6910207543
 30
0.0
 11
5.0611382289
 21
4.6910207543
 31
0.0
  0
LINE
  5
559
330
1F
100
AcDbEntity
  8
0
  6
Continuous
 62
     7
370
    30
100
AcDbLine
 10
5.0611382289
 20
4.6910207543
 30
0.0
 11
5.0611382289
 21
4.6570207338
 31
0.0
  0
LINE
  5
55A
330
1F
100
AcDbEntity
  8
0
  6
Continuous
 62
     7
370
    30
100
AcDbLine
 10
5.5301382526
 20
5.2070206868
 30
0.0
 11
5.5301382526
 21
5.2850207857
 31
0.0
  0
LINE
  5
55B
330
1F
100
AcDbEntity
  8
0
  6
Continuous
 62
     7
370
    30
100
AcDbLine
 10
4.0921383029
 20
5.2850207857
 30
0.0
 11
4.0921383029
 21
5.2070206868
 31
0.0
  0
LINE
  5
55C
330
1F
100
AcDbEntity
  8
0
  6
Continuous
 62
     7
370
    30
100
AcDbLine
 10
4.0921383029
 20
5.2850207857
 30
0.0
 11
5.5301382526
 21
5.2850207857
 31
0.0
  0
LINE
  5
55D
330
1F
100
AcDbEntity
  8
0
  6
Continuous
 62
     7
370
    30
100
AcDbLine
 10
2.8111381278
 20
4.6420207204
 30
0.0
 11
2.8111381278
 21
4.5790207082
 31
0.0
  0
LINE
  5
55E
330
1F
100
AcDbEntity
  8
0
  6
Continuous
 62
     7
370
    30
100
AcDbLine
 10
3.3111382317
 20
4.6420207204
 30
0.0
 11
2.8111381278
 21
4.6420207204
 31
0.0
  0
LINE
  5
55F
330
1F
100
AcDbEntity
  8
0
  6
Continuous
 62
     7
370
    30
100
AcDbLine
 10
3.3111382317
 20
4.6420207204
 30
0.0
 11
3.3111382317
 21
4.5790207082
 31
0.0
  0
LINE
  5
560
330
1F
100
AcDbEntity
  8
0
  6
Continuous
 62
     7
370
    30
100
AcDbLine
 10
3.3111382317
 20
4.5790207082
 30
0.0
 11
2.8111381278
 21
4.5790207082
 31
0.0
  0
LINE
  5
561
330
1F
100
AcDbEntity
  8
0
  6
Continuous
 62
     7
370
    30
100
AcDbLine
 10
3.8481382416
 20
5.1910207116
 30
0.0
 11
3.8481382416
 21
4.566020765
 31
0.0
  0
LINE
  5
562
330
1F
100
AcDbEntity
  8
0
  6
Continuous
 62
     7
370
    30
100
AcDbLine
 10
3.8481382416
 20
5.1910207116
 30
0.0
 11
3.9111381805
 21
5.1910207116
 31
0.0
  0
LINE
  5
563
330
1F
100
AcDbEntity
  8
0
  6
Continuous
 62
     7
370
    30
100
AcDbLine
 10
3.8481382416
 20
4.566020765
 30
0.0
 11
3.9111381805
 21
4.566020765
 31
0.0
  0
LINE
  5
564
330
1F
100
AcDbEntity
  8
0
  6
Continuous
 62
     7
370
    30
100
AcDbLine
 10
2.2741381179
 20
5.1910207116
 30
0.0
 11
2.2741381179
 21
4.566020765
 31
0.0
  0
LINE
  5
565
330
1F
100
AcDbEntity
  8
0
  6
Continuous
 62
     7
370
    30
100
AcDbLine
 10
2.2741381179
 20
5.1910207116
 30
0.0
 11
2.211138179
 21
5.1910207116
 31
0.0
  0
LINE
  5
566
330
1F
100
AcDbEntity
  8
0
  6
Continuous
 62
     7
370
    30
100
AcDbLine
 10
2.2741381179
 20
4.566020765
 30
0.0
 11
2.211138179
 21
4.566020765
 31
0.0
  0
LINE
  5
567
330
1F
100
AcDbEntity
  8
0
  6
Continuous
 62
     7
370
    30
100
AcDbLine
 10
2.8111381278
 20
4.6570207338
 30
0.0
 11
2.8111381278
 21
4.6420207204
 31
0.0
  0
LINE
  5
568
330
1F
100
AcDbEntity
  8
0
  6
Continuous
 62
     7
370
    30
100
AcDbLine
 10
3.3111382317
 20
4.6570207338
 30
0.0
 11
2.8111381278
 21
4.6570207338
 31
0.0
  0
LINE
  5
569
330
1F
100
AcDbEntity
  8
0
  6
Continuous
 62
     7
370
    30
100
AcDbLine
 10
3.3111382317
 20
4.6420207204
 30
0.0
 11
3.3111382317
 21
4.6570207338
 31
0.0
  0
LINE
  5
56A
330
1F
100
AcDbEntity
  8
0
  6
Continuous
 62
     7
370
    30
100
AcDbLine
 10
3.8331382282
 20
4.6910207543
 30
0.0
 11
3.8481382416
 21
4.6910207543
 31
0.0
  0
LINE
  5
56B
330
1F
100
AcDbEntity
  8
0
  6
Continuous
 62
     7
370
    30
100
AcDbLine
 10
3.8331382282
 20
5.1910207116
 30
0.0
 11
3.8331382282
 21
4.6910207543
 31
0.0
  0
LINE
  5
56C
330
1F
100
AcDbEntity
  8
0
  6
Continuous
 62
     7
370
    30
100
AcDbLine
 10
3.8481382416
 20
5.1910207116
 30
0.0
 11
3.8331382282
 21
5.1910207116
 31
0.0
  0
LINE
  5
56D
330
1F
100
AcDbEntity
  8
0
  6
Continuous
 62
     7
370
    30
100
AcDbLine
 10
2.2891381313
 20
5.1910207116
 30
0.0
 11
2.2741381179
 21
5.1910207116
 31
0.0
  0
LINE
  5
56E
330
1F
100
AcDbEntity
  8
0
  6
Continuous
 62
     7
370
    30
100
AcDbLine
 10
2.2891381313
 20
4.6910207543
 30
0.0
 11
2.2891381313
 21
5.1910207116
 31
0.0
  0
LINE
  5
56F
330
1F
100
AcDbEntity
  8
0
  6
Continuous
 62
     7
370
    30
100
AcDbLine
 10
2.2741381179
 20
4.6910207543
 30
0.0
 11
2.2891381313
 21
4.6910207543
 31
0.0
  0
LINE
  5
570
330
1F
100
AcDbEntity
  8
0
  6
Continuous
 62
     7
370
    30
100
AcDbLine
 10
2.8111381278
 20
4.6910207543
 30
0.0
 11
2.8111381278
 21
4.6570207338
 31
0.0
  0
LINE
  5
571
330
1F
100
AcDbEntity
  8
0
  6
Continuous
 62
     7
370
    30
100
AcDbLine
 10
2.8111381278
 20
4.6910207543
 30
0.0
 11
2.2891381313
 21
4.6910207543
 31
0.0
  0
LINE
  5
572
330
1F
100
AcDbEntity
  8
0
  6
Continuous
 62
     7
370
    30
100
AcDbLine
 10
2.342138159
 20
5.1910207116
 30
0.0
 11
2.2891381313
 21
5.1910207116
 31
0.0
  0
LINE
  5
573
330
1F
100
AcDbEntity
  8
0
  6
Continuous
 62
     7
370
    30
100
AcDbLine
 10
2.342138159
 20
5.2070206868
 30
0.0
 11
2.342138159
 21
5.1910207116
 31
0.0
  0
LINE
  5
574
330
1F
100
AcDbEntity
  8
0
  6
Continuous
 62
     7
370
    30
100
AcDbLine
 10
3.7801382005
 20
5.1910207116
 30
0.0
 11
3.7801382005
 21
5.2070206868
 31
0.0
  0
LINE
  5
575
330
1F
100
AcDbEntity
  8
0
  6
Continuous
 62
     7
370
    30
100
AcDbLine
 10
3.7801382005
 20
5.1910207116
 30
0.0
 11
3.8331382282
 21
5.1910207116
 31
0.0
  0
LINE
  5
576
330
1F
100
AcDbEntity
  8
0
  6
Continuous
 62
     7
370
    30
100
AcDbLine
 10
3.8331382282
 20
4.6910207543
 30
0.0
 11
3.3111382317
 21
4.6910207543
 31
0.0
  0
LINE
  5
577
330
1F
100
AcDbEntity
  8
0
  6
Continuous
 62
     7
370
    30
100
AcDbLine
 10
3.3111382317
 20
4.6910207543
 30
0.0
 11
3.3111382317
 21
4.6570207338
 31
0.0
  0
LINE
  5
578
330
1F
100
AcDbEntity
  8
0
  6
Continuous
 62
     7
370
    30
100
AcDbLine
 10
3.7801382005
 20
5.2070206868
 30
0.0
 11
3.7801382005
 21
5.2850207857
 31
0.0
  0
LINE
  5
579
330
1F
100
AcDbEntity
  8
0
  6
Continuous
 62
     7
370
    30
100
AcDbLine
 10
2.342138159
 20
5.2850207857
 30
0.0
 11
2.342138159
 21
5.2070206868
 31
0.0
  0
LINE
  5
57A
330
1F
100
AcDbEntity
  8
0
  6
Continuous
 62
     7
370
    30
100
AcDbLine
 10
2.342138159
 20
5.2850207857
 30
0.0
 11
2.5611382958
 21
5.2850207857
 31
0.0
  0
LINE
  5
57B
330
1F
100
AcDbEntity
  8
0
  6
Continuous
 62
     7
370
    30
100
AcDbLine
 10
3.5611382104
 20
5.2850207857
 30
0.0
 11
3.7801382005
 21
5.2850207857
 31
0.0
  0
LINE
  5
57C
330
1F
100
AcDbEntity
  8
0
  6
Continuous
 62
     7
370
    30
100
AcDbLine
 10
8.061138266
 20
4.6420207204
 30
0.0
 11
8.061138266
 21
4.5790207082
 31
0.0
  0
LINE
  5
57D
330
1F
100
AcDbEntity
  8
0
  6
Continuous
 62
     7
370
    30
100
AcDbLine
 10
8.5611383699
 20
4.5790207082
 30
0.0
 11
8.061138266
 21
4.5790207082
 31
0.0
  0
LINE
  5
57E
330
1F
100
AcDbEntity
  8
0
  6
Continuous
 62
     7
370
    30
100
AcDbLine
 10
8.5611383699
 20
4.6420207204
 30
0.0
 11
8.061138266
 21
4.6420207204
 31
0.0
  0
LINE
  5
57F
330
1F
100
AcDbEntity
  8
0
  6
Continuous
 62
     7
370
    30
100
AcDbLine
 10
8.5611383699
 20
4.6420207204
 30
0.0
 11
8.5611383699
 21
4.5790207082
 31
0.0
  0
LINE
  5
580
330
1F
100
AcDbEntity
  8
0
  6
Continuous
 62
     7
370
    30
100
AcDbLine
 10
9.0981383798
 20
5.1910207116
 30
0.0
 11
9.1611383187
 21
5.1910207116
 31
0.0
  0
LINE
  5
581
330
1F
100
AcDbEntity
  8
0
  6
Continuous
 62
     7
370
    30
100
AcDbLine
 10
9.0981383798
 20
5.1910207116
 30
0.0
 11
9.0981383798
 21
4.566020765
 31
0.0
  0
LINE
  5
582
330
1F
100
AcDbEntity
  8
0
  6
Continuous
 62
     7
370
    30
100
AcDbLine
 10
9.0981383798
 20
4.566020765
 30
0.0
 11
9.1611383187
 21
4.566020765
 31
0.0
  0
LINE
  5
583
330
1F
100
AcDbEntity
  8
0
  6
Continuous
 62
     7
370
    30
100
AcDbLine
 10
7.5241382561
 20
5.1910207116
 30
0.0
 11
7.5241382561
 21
4.566020765
 31
0.0
  0
LINE
  5
584
330
1F
100
AcDbEntity
  8
0
  6
Continuous
 62
     7
370
    30
100
AcDbLine
 10
7.5241382561
 20
4.566020765
 30
0.0
 11
7.4611383172
 21
4.566020765
 31
0.0
  0
LINE
  5
585
330
1F
100
AcDbEntity
  8
0
  6
Continuous
 62
     7
370
    30
100
AcDbLine
 10
7.5241382561
 20
5.1910207116
 30
0.0
 11
7.4611383172
 21
5.1910207116
 31
0.0
  0
LINE
  5
586
330
1F
100
AcDbEntity
  8
0
  6
Continuous
 62
     7
370
    30
100
AcDbLine
 10
8.061138266
 20
4.6570207338
 30
0.0
 11
8.061138266
 21
4.6420207204
 31
0.0
  0
LINE
  5
587
330
1F
100
AcDbEntity
  8
0
  6
Continuous
 62
     7
370
    30
100
AcDbLine
 10
8.5611383699
 20
4.6570207338
 30
0.0
 11
8.061138266
 21
4.6570207338
 31
0.0
  0
LINE
  5
588
330
1F
100
AcDbEntity
  8
0
  6
Continuous
 62
     7
370
    30
100
AcDbLine
 10
8.5611383699
 20
4.6420207204
 30
0.0
 11
8.5611383699
 21
4.6570207338
 31
0.0
  0
LINE
  5
589
330
1F
100
AcDbEntity
  8
0
  6
Continuous
 62
     7
370
    30
100
AcDbLine
 10
9.0831383664
 20
5.1910207116
 30
0.0
 11
9.0831383664
 21
4.6910207543
 31
0.0
  0
LINE
  5
58A
330
1F
100
AcDbEntity
  8
0
  6
Continuous
 62
     7
370
    30
100
AcDbLine
 10
9.0981383798
 20
5.1910207116
 30
0.0
 11
9.0831383664
 21
5.1910207116
 31
0.0
  0
LINE
  5
58B
330
1F
100
AcDbEntity
  8
0
  6
Continuous
 62
     7
370
    30
100
AcDbLine
 10
9.0831383664
 20
4.6910207543
 30
0.0
 11
9.0981383798
 21
4.6910207543
 31
0.0
  0
LINE
  5
58C
330
1F
100
AcDbEntity
  8
0
  6
Continuous
 62
     7
370
    30
100
AcDbLine
 10
7.5391382695
 20
5.1910207116
 30
0.0
 11
7.5241382561
 21
5.1910207116
 31
0.0
  0
LINE
  5
58D
330
1F
100
AcDbEntity
  8
0
  6
Continuous
 62
     7
370
    30
100
AcDbLine
 10
7.5391382695
 20
4.6910207543
 30
0.0
 11
7.5391382695
 21
5.1910207116
 31
0.0
  0
LINE
  5
58E
330
1F
100
AcDbEntity
  8
0
  6
Continuous
 62
     7
370
    30
100
AcDbLine
 10
7.5241382561
 20
4.6910207543
 30
0.0
 11
7.5391382695
 21
4.6910207543
 31
0.0
  0
LINE
  5
58F
330
1F
100
AcDbEntity
  8
0
  6
Continuous
 62
     7
370
    30
100
AcDbLine
 10
8.061138266
 20
4.6910207543
 30
0.0
 11
8.061138266
 21
4.6570207338
 31
0.0
  0
LINE
  5
590
330
1F
100
AcDbEntity
  8
0
  6
Continuous
 62
     7
370
    30
100
AcDbLine
 10
8.061138266
 20
4.6910207543
 30
0.0
 11
7.5391382695
 21
4.6910207543
 31
0.0
  0
LINE
  5
591
330
1F
100
AcDbEntity
  8
0
  6
Continuous
 62
     7
370
    30
100
AcDbLine
 10
7.5921382972
 20
5.1910207116
 30
0.0
 11
7.5391382695
 21
5.1910207116
 31
0.0
  0
LINE
  5
592
330
1F
100
AcDbEntity
  8
0
  6
Continuous
 62
     7
370
    30
100
AcDbLine
 10
7.5921382972
 20
5.2070206868
 30
0.0
 11
7.5921382972
 21
5.1910207116
 31
0.0
  0
LINE
  5
593
330
1F
100
AcDbEntity
  8
0
  6
Continuous
 62
     7
370
    30
100
AcDbLine
 10
9.0301383387
 20
5.1910207116
 30
0.0
 11
9.0301383387
 21
5.2070206868
 31
0.0
  0
LINE
  5
594
330
1F
100
AcDbEntity
  8
0
  6
Continuous
 62
     7
370
    30
100
AcDbLine
 10
9.0301383387
 20
5.1910207116
 30
0.0
 11
9.0831383664
 21
5.1910207116
 31
0.0
  0
LINE
  5
595
330
1F
100
AcDbEntity
  8
0
  6
Continuous
 62
     7
370
    30
100
AcDbLine
 10
9.0831383664
 20
4.6910207543
 30
0.0
 11
8.5611383699
 21
4.6910207543
 31
0.0
  0
LINE
  5
596
330
1F
100
AcDbEntity
  8
0
  6
Continuous
 62
     7
370
    30
100
AcDbLine
 10
8.5611383699
 20
4.6910207543
 30
0.0
 11
8.5611383699
 21
4.6570207338
 31
0.0
  0
LINE
  5
597
330
1F
100
AcDbEntity
  8
0
  6
Continuous
 62
     7
370
    30
100
AcDbLine
 10
7.5921382972
 20
5.2850207857
 30
0.0
 11
7.5921382972
 21
5.2070206868
 31
0.0
  0
LINE
  5
598
330
1F
100
AcDbEntity
  8
0
  6
Continuous
 62
     7
370
    30
100
AcDbLine
 10
7.5921382972
 20
5.2850207857
 30
0.0
 11
7.8111382873
 21
5.2850207857
 31
0.0
  0
LINE
  5
599
330
1F
100
AcDbEntity
  8
0
  6
Continuous
 62
     7
370
    30
100
AcDbLine
 10
8.8111382019
 20
5.2850207857
 30
0.0
 11
9.0301383387
 21
5.2850207857
 31
0.0
  0
LINE
  5
59A
330
1F
100
AcDbEntity
  8
0
  6
Continuous
 62
     7
370
    30
100
AcDbLine
 10
9.0301383387
 20
5.2070206868
 30
0.0
 11
9.0301383387
 21
5.2850207857
 31
0.0
  0
LINE
  5
59B
330
1F
100
AcDbEntity
  8
0
  6
Continuous
 62
     7
370
    30
100
AcDbLine
 10
6.3111382688
 20
4.6420207204
 30
0.0
 11
6.3111382688
 21
4.5790207082
 31
0.0
  0
LINE
  5
59C
330
1F
100
AcDbEntity
  8
0
  6
Continuous
 62
     7
370
    30
100
AcDbLine
 10
6.8111382261
 20
4.6420207204
 30
0.0
 11
6.3111382688
 21
4.6420207204
 31
0.0
  0
LINE
  5
59D
330
1F
100
AcDbEntity
  8
0
  6
Continuous
 62
     7
370
    30
100
AcDbLine
 10
6.8111382261
 20
4.6420207204
 30
0.0
 11
6.8111382261
 21
4.5790207082
 31
0.0
  0
LINE
  5
59E
330
1F
100
AcDbEntity
  8
0
  6
Continuous
 62
     7
370
    30
100
AcDbLine
 10
6.8111382261
 20
4.5790207082
 30
0.0
 11
6.3111382688
 21
4.5790207082
 31
0.0
  0
LINE
  5
59F
330
1F
100
AcDbEntity
  8
0
  6
Continuous
 62
     7
370
    30
100
AcDbLine
 10
7.3481382359
 20
5.1910207116
 30
0.0
 11
7.4111383215
 21
5.1910207116
 31
0.0
  0
LINE
  5
5A0
330
1F
100
AcDbEntity
  8
0
  6
Continuous
 62
     7
370
    30
100
AcDbLine
 10
7.3481382359
 20
4.566020765
 30
0.0
 11
7.4111383215
 21
4.566020765
 31
0.0
  0
LINE
  5
5A1
330
1F
100
AcDbEntity
  8
0
  6
Continuous
 62
     7
370
    30
100
AcDbLine
 10
7.3481382359
 20
5.1910207116
 30
0.0
 11
7.3481382359
 21
4.566020765
 31
0.0
  0
LINE
  5
5A2
330
1F
100
AcDbEntity
  8
0
  6
Continuous
 62
     7
370
    30
100
AcDbLine
 10
5.7741382498
 20
5.1910207116
 30
0.0
 11
5.711138249
 21
5.1910207116
 31
0.0
  0
LINE
  5
5A3
330
1F
100
AcDbEntity
  8
0
  6
Continuous
 62
     7
370
    30
100
AcDbLine
 10
5.7741382498
 20
4.566020765
 30
0.0
 11
5.711138249
 21
4.566020765
 31
0.0
  0
LINE
  5
5A4
330
1F
100
AcDbEntity
  8
0
  6
Continuous
 62
     7
370
    30
100
AcDbLine
 10
5.7741382498
 20
5.1910207116
 30
0.0
 11
5.7741382498
 21
4.566020765
 31
0.0
  0
LINE
  5
5A5
330
1F
100
AcDbEntity
  8
0
  6
Continuous
 62
     7
370
    30
100
AcDbLine
 10
6.3111382688
 20
4.6570207338
 30
0.0
 11
6.3111382688
 21
4.6420207204
 31
0.0
  0
LINE
  5
5A6
330
1F
100
AcDbEntity
  8
0
  6
Continuous
 62
     7
370
    30
100
AcDbLine
 10
6.8111382261
 20
4.6570207338
 30
0.0
 11
6.3111382688
 21
4.6570207338
 31
0.0
  0
LINE
  5
5A7
330
1F
100
AcDbEntity
  8
0
  6
Continuous
 62
     7
370
    30
100
AcDbLine
 10
6.8111382261
 20
4.6420207204
 30
0.0
 11
6.8111382261
 21
4.6570207338
 31
0.0
  0
LINE
  5
5A8
330
1F
100
AcDbEntity
  8
0
  6
Continuous
 62
     7
370
    30
100
AcDbLine
 10
7.3331382226
 20
4.6910207543
 30
0.0
 11
7.3481382359
 21
4.6910207543
 31
0.0
  0
LINE
  5
5A9
330
1F
100
AcDbEntity
  8
0
  6
Continuous
 62
     7
370
    30
100
AcDbLine
 10
7.3331382226
 20
5.1910207116
 30
0.0
 11
7.3331382226
 21
4.6910207543
 31
0.0
  0
LINE
  5
5AA
330
1F
100
AcDbEntity
  8
0
  6
Continuous
 62
     7
370
    30
100
AcDbLine
 10
7.3481382359
 20
5.1910207116
 30
0.0
 11
7.3331382226
 21
5.1910207116
 31
0.0
  0
LINE
  5
5AB
330
1F
100
AcDbEntity
  8
0
  6
Continuous
 62
     7
370
    30
100
AcDbLine
 10
5.7891382448
 20
5.1910207116
 30
0.0
 11
5.7741382498
 21
5.1910207116
 31
0.0
  0
LINE
  5
5AC
330
1F
100
AcDbEntity
  8
0
  6
Continuous
 62
     7
370
    30
100
AcDbLine
 10
5.7891382448
 20
4.6910207543
 30
0.0
 11
5.7891382448
 21
5.1910207116
 31
0.0
  0
LINE
  5
5AD
330
1F
100
AcDbEntity
  8
0
  6
Continuous
 62
     7
370
    30
100
AcDbLine
 10
5.7741382498
 20
4.6910207543
 30
0.0
 11
5.7891382448
 21
4.6910207543
 31
0.0
  0
LINE
  5
5AE
330
1F
100
AcDbEntity
  8
0
  6
Continuous
 62
     7
370
    30
100
AcDbLine
 10
6.3111382688
 20
4.6910207543
 30
0.0
 11
6.3111382688
 21
4.6570207338
 31
0.0
  0
LINE
  5
5AF
330
1F
100
AcDbEntity
  8
0
  6
Continuous
 62
     7
370
    30
100
AcDbLine
 10
6.3111382688
 20
4.6910207543
 30
0.0
 11
5.7891382448
 21
4.6910207543
 31
0.0
  0
LINE
  5
5B0
330
1F
100
AcDbEntity
  8
0
  6
Continuous
 62
     7
370
    30
100
AcDbLine
 10
5.8421382451
 20
5.1910207116
 30
0.0
 11
5.7891382448
 21
5.1910207116
 31
0.0
  0
LINE
  5
5B1
330
1F
100
AcDbEntity
  8
0
  6
Continuous
 62
     7
370
    30
100
AcDbLine
 10
5.8421382451
 20
5.2070206868
 30
0.0
 11
5.8421382451
 21
5.1910207116
 31
0.0
  0
LINE
  5
5B2
330
1F
100
AcDbEntity
  8
0
  6
Continuous
 62
     7
370
    30
100
AcDbLine
 10
5.8421382451
 20
5.2070206868
 30
0.0
 11
7.2801381948
 21
5.2070206868
 31
0.0
  0
LINE
  5
5B3
330
1F
100
AcDbEntity
  8
0
  6
Continuous
 62
     7
370
    30
100
AcDbLine
 10
7.2801381948
 20
5.1910207116
 30
0.0
 11
7.2801381948
 21
5.2070206868
 31
0.0
  0
LINE
  5
5B4
330
1F
100
AcDbEntity
  8
0
  6
Continuous
 62
     7
370
    30
100
AcDbLine
 10
7.2801381948
 20
5.1910207116
 30
0.0
 11
7.3331382226
 21
5.1910207116
 31
0.0
  0
LINE
  5
5B5
330
1F
100
AcDbEntity
  8
0
  6
Continuous
 62
     7
370
    30
100
AcDbLine
 10
6.8111382261
 20
4.6910207543
 30
0.0
 11
6.8111382261
 21
4.6570207338
 31
0.0
  0
LINE
  5
5B6
330
1F
100
AcDbEntity
  8
0
  6
Continuous
 62
     7
370
    30
100
AcDbLine
 10
7.3331382226
 20
4.6910207543
 30
0.0
 11
6.8111382261
 21
4.6910207543
 31
0.0
  0
LINE
  5
5B7
330
1F
100
AcDbEntity
  8
0
  6
Continuous
 62
     7
370
    30
100
AcDbLine
 10
7.2801381948
 20
5.2070206868
 30
0.0
 11
7.2801381948
 21
5.2850207857
 31
0.0
  0
LINE
  5
5B8
330
1F
100
AcDbEntity
  8
0
  6
Continuous
 62
     7
370
    30
100
AcDbLine
 10
5.8421382451
 20
5.2850207857
 30
0.0
 11
5.8421382451
 21
5.2070206868
 31
0.0
  0
LINE
  5
5B9
330
1F
100
AcDbEntity
  8
0
  6
Continuous
 62
     7
370
    30
100
AcDbLine
 10
5.8421382451
 20
5.2850207857
 30
0.0
 11
7.2801381948
 21
5.2850207857
 31
0.0
  0
LINE
  5
5BA
330
1F
100
AcDbEntity
  8
0
  6
Continuous
 62
     8
370
    30
100
AcDbLine
 10
8.4889712836
 20
5.3525513523
 30
0.0
 11
8.1333053523
 21
5.3525513523
 31
0.0
  0
LINE
  5
5BB
330
1F
100
AcDbEntity
  8
0
  6
Continuous
 62
     8
370
    30
100
AcDbLine
 10
3.2389711454
 20
5.3525513523
 30
0.0
 11
2.8833052141
 21
5.3525513523
 31
0.0
  0
LINE
  5
5BC
330
1F
100
AcDbEntity
  8
0
  6
Continuous
 62
     8
370
    30
100
AcDbLine
 10
2.342138159
 20
5.2070206868
 30
0.0
 11
2.5611382958
 21
5.2070206868
 31
0.0
  0
LINE
  5
5BD
330
1F
100
AcDbEntity
  8
0
  6
Continuous
 62
     8
370
    30
100
AcDbLine
 10
3.5611382104
 20
5.2070206868
 30
0.0
 11
3.7801382005
 21
5.2070206868
 31
0.0
  0
LINE
  5
5BE
330
1F
100
AcDbEntity
  8
0
  6
Continuous
 62
     8
370
    30
100
AcDbLine
 10
7.5921382972
 20
5.2070206868
 30
0.0
 11
7.8111382873
 21
5.2070206868
 31
0.0
  0
LINE
  5
5BF
330
1F
100
AcDbEntity
  8
0
  6
Continuous
 62
     8
370
    30
100
AcDbLine
 10
8.8111382019
 20
5.2070206868
 30
0.0
 11
9.0301383387
 21
5.2070206868
 31
0.0
  0
MTEXT
  5
5C1
330
1F
100
AcDbEntity
  8
FORMAT
100
AcDbMText
 10
4.6313548387
 20
2.9880336231
 30
0.0
 40
0.125
 41
0.0
 71
     1
 72
     1
  1
ML-39, 4 SLOTS, TYPE 15
  7
SLDTEXTSTYLE0
 73
     1
 44
1.0
  0
ENDSEC
  0
SECTION
  2
OBJECTS
  0
DICTIONARY
  5
C
330
0
100
AcDbDictionary
281
     1
  3
ACAD_GROUP
350
D
  3
ACAD_LAYOUT
350
1A
  3
ACAD_MLINESTYLE
350
17
  3
ACAD_PLOTSETTINGS
350
19
  3
ACAD_PLOTSTYLENAME
350
E
  3
ACAD_SCALELIST
350
47
  0
DICTIONARY
  5
D
102
{ACAD_REACTORS
330
C
102
}
330
C
100
AcDbDictionary
281
     1
  0
DICTIONARY
  5
1A
102
{ACAD_REACTORS
330
C
102
}
330
C
100
AcDbDictionary
281
     1
  3
Layout1
350
1E
  3
Layout2
350
26
  3
Model
350
22
  0
DICTIONARY
  5
17
102
{ACAD_REACTORS
330
C
102
}
330
C
100
AcDbDictionary
281
     1
  3
Standard
350
18
  0
DICTIONARY
  5
19
102
{ACAD_REACTORS
330
C
102
}
330
C
100
AcDbDictionary
281
     1
  0
ACDBDICTIONARYWDFLT
  5
E
102
{ACAD_REACTORS
330
C
102
}
330
C
100
AcDbDictionary
281
     1
  3
Normal
350
F
100
AcDbDictionaryWithDefault
340
F
  0
DICTIONARY
  5
47
102
{ACAD_REACTORS
330
C
102
}
330
C
100
AcDbDictionary
281
     1
  3
A0
350
48
  3
A1
350
49
  3
A2
350
4A
  3
A3
350
4B
  3
A4
350
4C
  3
A5
350
4D
  3
A6
350
4E
  3
A7
350
4F
  3
A8
350
50
  3
A9
350
51
  3
B0
350
52
  3
B1
350
53
  3
B2
350
54
  3
B3
350
55
  3
B4
350
56
  3
B5
350
57
  3
B6
350
58
  3
B7
350
59
  3
B8
350
5A
  3
B9
350
5B
  3
C0
350
5C
  3
C1
350
5D
  3
C2
350
5E
  3
C3
350
5F
  3
C4
350
60
  3
C5
350
61
  3
C6
350
62
  3
C7
350
63
  3
C8
350
64
  3
C9
350
65
  3
D0
350
66
  3
D1
350
67
  3
D2
350
68
  0
LAYOUT
  5
1E
102
{ACAD_REACTORS
330
1A
102
}
330
1A
100
AcDbPlotSettings
  1

  2
none_device
  4

  6

 40
0.0
 41
0.0
 42
0.0
 43
0.0
 44
0.0
 45
0.0
 46
0.0
 47
0.0
 48
0.0
 49
0.0
140
0.0
141
0.0
142
1.0
143
1.0
 70
   688
 72
     0
 73
     0
 74
     5
  7

 75
    16
147
1.0
148
0.0
149
0.0
100
AcDbLayout
  1
Layout1
 70
     1
 71
     1
 10
0.0
 20
0.0
 11
12.0
 21
9.0
 12
0.0
 22
0.0
 32
0.0
 14
1.0000000000E+20
 24
1.0000000000E+20
 34
1.0000000000E+20
 15
-1.0000000000E+20
 25
-1.0000000000E+20
 35
-1.0000000000E+20
146
0.0
 13
0.0
 23
0.0
 33
0.0
 16
1.0
 26
0.0
 36
0.0
 17
0.0
 27
1.0
 37
0.0
 76
     0
330
1B
  0
LAYOUT
  5
26
102
{ACAD_REACTORS
330
1A
102
}
330
1A
100
AcDbPlotSettings
  1

  2
none_device
  4

  6

 40
0.0
 41
0.0
 42
0.0
 43
0.0
 44
0.0
 45
0.0
 46
0.0
 47
0.0
 48
0.0
 49
0.0
140
0.0
141
0.0
142
1.0
143
1.0
 70
   688
 72
     0
 73
     0
 74
     5
  7

 75
    16
147
1.0
148
0.0
149
0.0
100
AcDbLayout
  1
Layout2
 70
     1
 71
     2
 10
0.0
 20
0.0
 11
0.0
 21
0.0
 12
0.0
 22
0.0
 32
0.0
 14
0.0
 24
0.0
 34
0.0
 15
0.0
 25
0.0
 35
0.0
146
0.0
 13
0.0
 23
0.0
 33
0.0
 16
1.0
 26
0.0
 36
0.0
 17
0.0
 27
1.0
 37
0.0
 76
     0
330
23
  0
LAYOUT
  5
22
102
{ACAD_REACTORS
330
1A
102
}
330
1A
100
AcDbPlotSettings
  1

  2
none_device
  4
Letter_(8.50_x_11.00_Inches)
  6

 40
6.35
 41
6.35
 42
6.35000508
 43
6.35000508
 44
215.9
 45
279.4
 46
0.0
 47
0.0
 48
0.0
 49
0.0
140
0.0
141
0.0
142
1.0
143
1.0
 70
  1712
 72
     0
 73
     0
 74
     0
  7

 75
     0
147
1.0
148
0.0
149
0.0
100
AcDbLayout
  1
Model
 70
     1
 71
     0
 10
0.0
 20
0.0
 11
11.0
 21
8.5
 12
0.0
 22
0.0
 32
0.0
 14
0.0
 24
0.0
 34
0.0
 15
11.0
 25
8.5
 35
0.0
146
0.0
 13
0.0
 23
0.0
 33
0.0
 16
1.0
 26
0.0
 36
0.0
 17
0.0
 27
1.0
 37
0.0
 76
     0
330
1F
331
29
  0
MLINESTYLE
  5
18
102
{ACAD_REACTORS
330
17
102
}
330
17
100
AcDbMlineStyle
  2
Standard
 70
     0
  3

 62
   256
 51
90.0
 52
90.0
 71
     2
 49
0.5
 62
   256
  6
BYLAYER
 49
-0.5
 62
   256
  6
BYLAYER
  0
ACDBPLACEHOLDER
  5
F
102
{ACAD_REACTORS
330
E
102
}
330
E
  0
SCALE
  5
48
102
{ACAD_REACTORS
330
47
102
}
330
47
100
AcDbScale
 70
     0
300
1:1
140
1.0
141
1.0
290
     1
  0
SCALE
  5
49
102
{ACAD_REACTORS
330
47
102
}
330
47
100
AcDbScale
 70
     0
300
1:2
140
1.0
141
2.0
290
     0
  0
SCALE
  5
4A
102
{ACAD_REACTORS
330
47
102
}
330
47
100
AcDbScale
 70
     0
300
1:4
140
1.0
141
4.0
290
     0
  0
SCALE
  5
4B
102
{ACAD_REACTORS
330
47
102
}
330
47
100
AcDbScale
 70
     0
300
1:5
140
1.0
141
5.0
290
     0
  0
SCALE
  5
4C
102
{ACAD_REACTORS
330
47
102
}
330
47
100
AcDbScale
 70
     0
300
1:8
140
1.0
141
8.0
290
     0
  0
SCALE
  5
4D
102
{ACAD_REACTORS
330
47
102
}
330
47
100
AcDbScale
 70
     0
300
1:10
140
1.0
141
10.0
290
     0
  0
SCALE
  5
4E
102
{ACAD_REACTORS
330
47
102
}
330
47
100
AcDbScale
 70
     0
300
1:16
140
1.0
141
16.0
290
     0
  0
SCALE
  5
4F
102
{ACAD_REACTORS
330
47
102
}
330
47
100
AcDbScale
 70
     0
300
1:20
140
1.0
141
20.0
290
     0
  0
SCALE
  5
50
102
{ACAD_REACTORS
330
47
102
}
330
47
100
AcDbScale
 70
     0
300
1:30
140
1.0
141
30.0
290
     0
  0
SCALE
  5
51
102
{ACAD_REACTORS
330
47
102
}
330
47
100
AcDbScale
 70
     0
300
1:40
140
1.0
141
40.0
290
     0
  0
SCALE
  5
52
102
{ACAD_REACTORS
330
47
102
}
330
47
100
AcDbScale
 70
     0
300
1:50
140
1.0
141
50.0
290
     0
  0
SCALE
  5
53
102
{ACAD_REACTORS
330
47
102
}
330
47
100
AcDbScale
 70
     0
300
1:100
140
1.0
141
100.0
290
     0
  0
SCALE
  5
54
102
{ACAD_REACTORS
330
47
102
}
330
47
100
AcDbScale
 70
     0
300
2:1
140
2.0
141
1.0
290
     0
  0
SCALE
  5
55
102
{ACAD_REACTORS
330
47
102
}
330
47
100
AcDbScale
 70
     0
300
4:1
140
4.0
141
1.0
290
     0
  0
SCALE
  5
56
102
{ACAD_REACTORS
330
47
102
}
330
47
100
AcDbScale
 70
     0
300
8:1
140
8.0
141
1.0
290
     0
  0
SCALE
  5
57
102
{ACAD_REACTORS
330
47
102
}
330
47
100
AcDbScale
 70
     0
300
10:1
140
10.0
141
1.0
290
     0
  0
SCALE
  5
58
102
{ACAD_REACTORS
330
47
102
}
330
47
100
AcDbScale
 70
     0
300
100:1
140
100.0
141
1.0
290
     0
  0
SCALE
  5
59
102
{ACAD_REACTORS
330
47
102
}
330
47
100
AcDbScale
 70
     0
300
1/128" = 1'-0"
140
0.0078125
141
12.0
290
     0
  0
SCALE
  5
5A
102
{ACAD_REACTORS
330
47
102
}
330
47
100
AcDbScale
 70
     0
300
1/64" = 1'-0"
140
0.015625
141
12.0
290
     0
  0
SCALE
  5
5B
102
{ACAD_REACTORS
330
47
102
}
330
47
100
AcDbScale
 70
     0
300
1/32" = 1'-0"
140
0.03125
141
12.0
290
     0
  0
SCALE
  5
5C
102
{ACAD_REACTORS
330
47
102
}
330
47
100
AcDbScale
 70
     0
300
1/16" = 1'-0"
140
0.0625
141
12.0
290
     0
  0
SCALE
  5
5D
102
{ACAD_REACTORS
330
47
102
}
330
47
100
AcDbScale
 70
     0
300
3/32" = 1'-0"
140
0.09375
141
12.0
290
     0
  0
SCALE
  5
5E
102
{ACAD_REACTORS
330
47
102
}
330
47
100
AcDbScale
 70
     0
300
1/8" = 1'-0"
140
0.125
141
12.0
290
     0
  0
SCALE
  5
5F
102
{ACAD_REACTORS
330
47
102
}
330
47
100
AcDbScale
 70
     0
300
3/16" = 1'-0"
140
0.1875
141
12.0
290
     0
  0
SCALE
  5
60
102
{ACAD_REACTORS
330
47
102
}
330
47
100
AcDbScale
 70
     0
300
1/4" = 1'-0"
140
0.25
141
12.0
290
     0
  0
SCALE
  5
61
102
{ACAD_REACTORS
330
47
102
}
330
47
100
AcDbScale
 70
     0
300
3/8" = 1'-0"
140
0.375
141
12.0
290
     0
  0
SCALE
  5
62
102
{ACAD_REACTORS
330
47
102
}
330
47
100
AcDbScale
 70
     0
300
1/2" = 1'-0"
140
0.5
141
12.0
290
     0
  0
SCALE
  5
63
102
{ACAD_REACTORS
330
47
102
}
330
47
100
AcDbScale
 70
     0
300
3/4" = 1'-0"
140
0.75
141
12.0
290
     0
  0
SCALE
  5
64
102
{ACAD_REACTORS
330
47
102
}
330
47
100
AcDbScale
 70
     0
300
1" = 1'-0"
140
1.0
141
12.0
290
     0
  0
SCALE
  5
65
102
{ACAD_REACTORS
330
47
102
}
330
47
100
AcDbScale
 70
     0
300
1-1/2" = 1'-0"
140
1.5
141
12.0
290
     0
  0
SCALE
  5
66
102
{ACAD_REACTORS
330
47
102
}
330
47
100
AcDbScale
 70
     0
300
3" = 1'-0"
140
3.0
141
12.0
290
     0
  0
SCALE
  5
67
102
{ACAD_REACTORS
330
47
102
}
330
47
100
AcDbScale
 70
     0
300
6" = 1'-0"
140
6.0
141
12.0
290
     0
  0
SCALE
  5
68
102
{ACAD_REACTORS
330
47
102
}
330
47
100
AcDbScale
 70
     0
300
1'-0" = 1'-0"
140
12.0
141
12.0
290
     0
  0
ENDSEC
  0
EOF
